Cifras e Tablaturas
Pop Evil

Pop Evil

Waking Lions

Cifras Cancelar Versão de Impressão

Pop Evil - Waking Lions

Tom: A#

  			
Tuning: Drop A# (A#,F,A#,D#,G,C) 

Riff 1 
 C|-----------------------------------------------------------------------------| 
 G|-----------------------------------------------------------------------------| 
D#|-----------------------------------------------------------------------------| 
A#|------------5------------------5------------------5------------------5-------|  
 F|-0--0-0-0-0-3-1-0--0-0-0-0-0-0-3-0-1-4-0--0-0-0-0-3-1-0--0-0-0-0-0-0-3-0-5ph-| 
A#|-0--0-0-0-0---1-0--0-0-0-0-0-0---0-1-4-0--0-0-0-0---1-0--0-0-0-0-0-0---0-----| 
       * * * *        * * * * * *            * * * *        * * * * * *   * 

Play Riff 1 x3 

Riff 1a 
 C|--------------------------------------------------------------------------| 
 G|--------------------------------------------------------------------------| 
D#|--------------------------------------------------------------------------| 
A#|------------5---------------5------------------5------------------5-------| 
 F|-0--0-0-0-0-3-1-0--0-0--0-0-3-0-1-4-0--0-0-0-0-3-1-0--0-0-0-0-0-0-3-0-5ph-| 
A#|-0--0-0-0-0---1-0--0-0--0-0---0-1-4-0--0-0-0-0---1-0--0-0-0-0-0-0---0-----| 
       * * * *        * *  * *            * * * *        * * * * * *   * 

Riff 2   "Is this better, tell me that's a better way..." 
 C|-------------------------------------------------------------------| 
 G|-------------------------------------------------------------------| 
D#|-------------------------------------------------------------------| 
A#|--------------------------5--------------------------------------5-| 
 F|--------------------------3---1----------------------------4-1-1-3-| 
A#|-0--0--0-0-10\-1-0--0-0-0---0-1-0-0--0--0-0-10\-1-0--0-0-0-4-1-1---| 

Play Riff 2 x2   "Vultures above, serpents below..." 

Riff 3   "...but I won't go..." 
 C|---------------------------------------------------------------------------| 
 G|---------------------------------------------------------------------------| 
D#|---------------------------------------------------------------------------| 
A#|------------------------------4-4-1-0------------------------------x-x-x-x-| 
 F|------------------------------4-4-1-0------------------------------x-x-x-x-| 
A#|-0--0--12-12-12-12-12-13\-0-0---------0--0--12-12-12-12-12-13\-0-0-x-x-x-x-| 

Play Riff 2 x2   "Is it better to die than live another day..." 
Play Riff 3 x1   "...but I won't go..."  
                 (play the 4-4-1-0 chords instead of the string chugs this time) 

Riff 4   "I wanna stand up a hundred feet tall..." 
 C|----------------------------------------------------------------| 
 G|----------------------------------------------------------------| 
D#|----------------------------------------------------------------| 
A#|-5-5-5-5-5-5-5-5-7-7-7-7-7-7-7-8--8-8-8-8-8-8-8-8-----8-----8---| 
 F|-1-1-1-1-1-1-1-1-3-3-3-3-3-3-3-5--5-5-5-5-5-5-5-5-5-5-5-5-5-5-5-| 
A#|-1-1-1-1-1-1-1-1-3-3-3-3-3-3-3-5--5-5-5-5-5-5-5-5-5-5-5-5-5-5-5-| 
                                                     * *   * *   * 

 C|-------------------------------------------------------------------| 
 G|-------------------------------------------------------------------| 
D#|-------------------------------------------------------------------| 
A#|-5-5-5-5-5-5-5-5-7-7-7-7-7-7-7-8--8-8-8-8-8-8-8-12-----12-----12---| 
 F|-1-1-1-1-1-1-1-1-3-3-3-3-3-3-3-5--5-5-5-5-5-5-5-8--8-8-8--8-8-8--8-| 
A#|-1-1-1-1-1-1-1-1-3-3-3-3-3-3-3-5--5-5-5-5-5-5-5-8--8-8-8--8-8-8--8-| 
                                                      * *    * *    * 

 C|-------------------------------------------------------------------------| 
 G|-------------------------------------------------------------------------| 
D#|-------------------------------------------------------------------------| 
A#|-5-5-5-5-5-5-5-5-7-7-7-7-7-7-7-7-8-8-8-8-8-8-8-8-12-12-12-12-12-12-12-12-| 
 F|-1-1-1-1-1-1-1-1-3-3-3-3-3-3-3-3-5-5-5-5-5-5-5-5-8--8--8--8--8--8--8--8--| 
A#|-1-1-1-1-1-1-1-1-3-3-3-3-3-3-3-3-5-5-5-5-5-5-5-5-8--8--8--8--8--8--8--8--| 

 C|---------------------------------| 
 G|---------------------------------| 
D#|---------------------------------| 
A#|-5-5-5-5-5-5-5-5-7-7-7-7-7-7-7-7-| 
 F|-1-1-1-1-1-1-1-1-3-3-3-3-3-3-3-3-| 
A#|-1-1-1-1-1-1-1-1-3-3-3-3-3-3-3-3-| 

Fill 1   "Waking the lions in me!!" 
 C|-----------------------------------------------------------------------------| 
 G|-----------------------------------------------------------------------------| 
D#|-----------------------------------------------------------------------------| 
A#|---------------5------------------5------------------5---------------5-------| 
 F|-\\-0--0-0-0-0-3-1-0--0-0-0-0-0-0-3-0-1-4-0--0-0-0-0-3-1-0--0-0--0-0-3-0-5ph-| 
A#|-\\-0--0-0-0-0---1-0--0-0-0-0-0-0---0-1-4-0--0-0-0-0---1-0--0-0--0-0---0-----| 
          * * * *        * * * * * *            * * * *        * *  * *   * 

Play Riff 2 x2   "Beneath the ash I'm dying 'til I rise again..." 
Play Riff 3 x1   "...but I won't go..." 
Play Riff 4 x2   "I wanna stand up a hundred feet tall..." 

Riff 4 ending variation/extension 
 C|-----------------------------------------------------------------| 
 G|-----------------------------------------------------------------| 
D#|-------------------------------------------------7-7-7-7-7-7-7-7-| 
A#|-5-5-5-5-5-5-5-5-7-7-7-7-7-7-7-7-8-8-8-8-8-8-8-8-5-5-5-5-5-5-5-5-| 
 F|-1-1-1-1-1-1-1-1-3-3-3-3-3-3-3-3-5-5-5-5-5-5-5-5-5-5-5-5-5-5-5-5-| 
A#|-1-1-1-1-1-1-1-1-3-3-3-3-3-3-3-3-5-5-5-5-5-5-5-5-5-5-5-5-5-5-5-5-| 

Riff 4 extension note: Basically instead of getting cut short like the previous Chorus it gets extended 
                       out an extra measure. 

*rest* 
Play Riff 4 x1 w/ extension   "Waking the lions in me..." 

Enjoy!! 
    	
fixar
fixar inscrever-se

enviado porenviado por: andrsouza
cifra enviadaCorrigida por: sem correções
logo top cifrasComente
ico música do artistaMúsicas deste artista
ico curtiuCurtiu?
ico destaqueDestaque
Petaxxon Comunicação Online

Cifras.com.br - Melhor e mais completo site de cifras e tablaturas do Brasil Mais de 1 milhão de acordes de músicas cadastradas desde 2003
As informações contidas no nosso site são colaborações de seus usuários e podem conter erros, sendo assim, não nos responsabilizamos sobre nenhuma destas.

close
menos
mais
close
Cor dos acordes:

Cor da letra:

close
Alinhar acordes a direita Alinhar acordes a esquerda Alinhar acordes em baixo Alinhar acordes no topo
close
  Mostrar todos os acordes Esconder acordes muito fáceis Esconder acordes fáceis Esconder acordes intermediários
redimensionar
glossário