Cifras e Tablaturas
Porcupine Tree

Porcupine Tree

Begonia Seduction Scene

Cifras Cancelar Versão de Impressão
cifras

Porcupine Tree - Begonia Seduction Scene

fixar na tela  
Exibindo: vídeo-aula ver clipes redimensionar
  
 
Capo 2                     

e|-------0-----|-------0-----|-------0-----|-------0-----| 
C|-----2---2---|-----2---2---|-----5---5---|-----5---5---| 
G|---2-------2-|---2-------2-|---3-------3-|---3-------3-| 
D|-0-----------|-0-----------|-0-----------|-0-----------| 
A|-------------|-------------|-------------|-------------| 
E|-------------|-------------|-------------|-------------| x2 


e|-------0-----|-------0-----|-------0-----|-------0-----| 
C|-----7---7---|-----7---7---|-----5---5---|-----5---5---| 
G|---5-------5-|---5-------5-|---3-------3-|---3-------3-| 
D|-0-----------|-0-----------|-0-----------|-0-----------| 
A|-------------|-------------|-------------|-------------| 
E|-------------|-------------|-------------|-------------| x2 

e|-------0-----|-------0-----| 
C|-----2---2---|-----2---2---| 
G|---2-------2-|---2-------2-| 
D|-0-----------|-0-----------| 
A|-------------|-------------| 
E|-------------|-------------| x3 

e|-----0-0-0---|-----0-0-0---| 
C|-------------|-------------| 
G|---2-------2-|---2-------2-| 
D|-0-----------|-0-----------| 
A|-------------|-------------| 
E|-------------|-------------| 

e|-0h1-----0-1---|-------0-----|-------0-----|-------0-----| 
C|---------------|-----5---5---|-----7---7---|-----7---7---| 
G|-----3-------3-|---3-------3-|---5-------5-|---5-------5-| 
D|-------0-------|-0-----------|-0-----------|-0-----------| 
A|---------------|-------------|-------------|-------------| 
E|---------------|-------------|-------------|-------------| 

                                                    
e|-------0-----|-------0-----|-------0-----| 
B|-----5---5---|-----5---5---|-----7---7---| 
G|---3-------3-|---3-------3-|---5-------5-| 
D|-0-----------|-0-----------|-0-----------| 
A|-------------|-------------|-------------| 
E|-------------|-------------|-------------| 

Fiddle around with this chord 
e|-0--| 
C|-7--| 
G|-5--| 
D|-0--| 
A|----| 
E|----| 

Which changes into (1:17) 
e|-----------------| 
C|-7---7---7---7---| 
G|---5---5---5---5-| 
D|-----------------| 
A|-----------------| 
E|-----------------| 

And later on transitions to (1:37) 
e|-----------------| 
C|-0---0---0---0---| 
G|---5---5---5---5-| 
D|-----------------| 
A|-----------------| 
E|-----------------| 

1:52   This part is the reason of the weird tuning) 
e|-----------------| 
B|-0-------0-------| 
G|---5---5---5---5-| 
D|-----7-------7---| 
A|-----------------| 
E|-----------------| repeat 11 times 

e|-----------------| 
B|-0-------0-------| 
G|---5---5---5---5-| 
D|-----5-------5---| 
A|-----------------| 
E|-----------------| 

e|-----------------|-----------------|-----------------|-----------------| 
B|-0-------0-------|-0-------0-------|-0-------0-------|-0-------0-------| 
G|---5---5---5---5-|---5---5---5---5-|---5---5---5---5-|---5---5---5---5-| 
D|-----5-------4---|-----4-------4---|-----4-------4---|-----4-------4---| 
A|-----------------|-----------------|-----------------|-----------------| 
E|-----------------|-----------------|-----------------|-----------------| 


Lead guitar, with lots of delay, reverb and use of tremolo-arm 

Standard tuning, no capo 
e|-----19-------|------22---------|-----19-------|-17------------| 
B|-17-----------|-/19-----22------|-17-----20----|----17h19------| 
G|--------------|-----------------|--------------|---------------| 
D|--------------|-----------------|--------------|---------------| 
A|--------------|-----------------|--------------|---------------| 
E|--------------|-----------------|--------------|---------------| 

          (tremolo) 
e|-------17-------|--------19-19-19-19-19-19-19-17-17-----| 
B|----------17----|---------------------------------------| 
G|----------------|---------------------------------------| 
D|----------------|---------------------------------------| 
A|----------------|---------------------------------------| 
E|----------------|---------------------------------------| 
  
        tremolo-dip 
e|-17-15\  /--17-|-------15-------|----------------|-14-------------| 
B|------ \/ -----|----------------|----14-----13---|-------15-------| 
G|---------------|----------------|----------------|----------------| 
D|---------------|----------------|----------------|----------------| 
A|---------------|----------------|----------------|----------------| 
E|---------------|----------------|----------------|----------------| 

e|---------------|---16-----------|-17-------------|-------17----17----17----17-| 
B|---------------|----------------|----15----------|----15----15----15----15----| 
G|---------------|----------------|----------------|----------------------------| 
D|---------------|----------------|----------------|----------------------------| 
A|---------------|----------------|----------------|----------------------------| 
E|---------------|----------------|----------------|----------------------------| 


************************************ 

| h  Hammer-on 
| /  Slide up 

************************************ 
  

top 5 | porcupine tree
top rock'n roll
Outras músicas do artista letras do(a) Porcupine Tree
Top cifras »Top artistas »
Petaxxon Comunicação Online
Cifras.com.br - Melhor e mais completo site de cifras e tablaturas do Brasil
Mais de 1 milhão de acordes de músicas cadastradas desde 2003
As informações contidas no nosso site são colaborações de seus usuários e podem conter erros, sendo assim, não nos responsabilizamos sobre nenhuma destas.
close
menos
mais
close
Cor dos acordes:

Cor da letra:

 

save
close
close
 
redimensionar