Cifras e Tablaturas
Porter

Porter

Cuxillo

Cifras Cancelar Versão de Impressão
cifras

Porter - Cuxillo

fixar na tela  
Exibindo: vídeo-aula ver clipes redimensionar

Tom:

A

ver outros tons
  
Intro 

   PM.......................................................................................... 
E|----------------------|------------------------|------------------------------------------------| 
B|----------------------|------------------------|------------------------------------------------| 
G|-----------6-6-6-6-6--|--4-4-6-6-6-8-8-8-------|------------------------------------------------| 
D|-7-7-9-9-9------------|------------------9-9-9-|--6-6--9-9-9--6-6--9-9-9--4-4-6-6-6-7-7-7-7-7---| 
A|-----------4-4-4-4-4--|--2-2-4-4-4-6-6-6-------|------------------------------------------------| 
E|-5-5-7-7-7------------|------------------7-7-7-|--4-4--7-7-7--4-4--7-7-7--2-2-4-4-4-5-5-5-5-5---| 

PM......................    
E|-----------------------| 
B|-----------------------| 
G|-----------------------| (x4) 
D|--9-9-6-6-6-9-9-9-9-9--| 
A|--7-7-------7-7-7-7-7--| 
E|--0-0-4-4-4-0-0-0-0-0--| 


Verse 

 PM.............................................................................................. 
E|----------------------|------------------------|------------------------------------------------| 
B|----------------------|------------------------|------------------------------------------------| 
G|-----------6-6-6-6-6--|--4-4-6-6-6-8-8-8-------|------------------------------------------------| 
D|-7-7-9-9-9------------|------------------9-9-9-|--6-6--9-9-9--6-6--9-9-9--4-4-6-6-6-7-7-7-7-7---| 
A|-----------4-4-4-4-4--|--2-2-4-4-4-6-6-6-------|------------------------------------------------| 
E|-5-5-7-7-7------------|------------------7-7-7-|--4-4--7-7-7--4-4--7-7-7--2-2-4-4-4-5-5-5-5-5---| 
                                                                                                        (x3) 
PM......................    
E|-----------------------| 
B|-----------------------| 
G|-----------------------| (x4) 
D|--9-9-6-6-6-9-9-9-9-9--| 
A|--7-7-------7-7-7-7-7--| 
E|--0-0-4-4-4-0-0-0-0-0--| 

Chorus 

        A                B            C#m7            E 
E|--5-5--5-5-5--|--2-2--2-2-2--|--4-4--4-4-4--|--7-7--7-7-7--| 
B|--5-5--5-5-5--|--4-4--4-4-4--|--5-5--5-5-5--|--9-9--9-9-9--| 
G|--6-6--6-6-6--|--4-4--4-4-4--|--4-4--4-4-4--|--9-9--9-9-9--| (x4) 
D|--7-7--7-7-7--|--4-4--4-4-4--|--6-6--6-6-6--|--9-9--9-9-9--| 
A|--------------|--------------|--------------|--------------| 
E|--------------|--------------|--------------|--------------| 

GII 
E|-----------| 
B|--9-9-9-9--| 
G|-----------| 
D|--6-6-6-6--| 
A|-----------| 
E|-----------| 

E|----------------| 
B|---9-7-----9-9--| 
G|-------9-9------| (x2) 
D|---6-4-----6-6--| 
A|-------7-7------| 
E|----------------| 
                           (x4) 
E|----------------| 
B|---9-7---9------| 
G|-------9---9-9--| (x2) 
D|---6-4---6------| 
A|-------7---7-7--| 
E|----------------| 

E|----------------------| 
B|--9-9-9--9-9-9--9-9-9-| 
G|----------------------| 
D|--6-6-6--6-6-6--6-6-6-| 
A|----------------------| 
E|----------------------| 

Outro 
  PM................................... 
E|--------|------------------------------| 
B|--14-12-|--------14-12-----14-12-------| 
G|--------|--13-11------13-11-----13-11--| 
D|--------|------------------------------| 
A|--------|------------------------------| 
E|--------|------------------------------| 

  PM................................................................... 
E|--------11---------------11-|---------------11-|---------------11--------| 
B|-12---12---12--12--12--12---|-12--12--12--12---|-12--12--12--12---12-----| 
G|---13--------13--13--13-----|---13--13--13-----|---13--13--13--------13--|           
D|----------------------------|------------------|-------------------------| 
A|----------------------------|------------------|-------------------------| 
E|----------------------------|------------------|-------------------------| 

Solo 
E|--------------------------------------|--------------------------------------| 
B|-14p12-------------12-----------------|-14p12-------------12-----------------| 
G|-------13.-13--13~---13~13~-11-11-11--|-------13.-13--13~---13~13b14b13~~----| (x4) 
D|--------------------------------------|--------------------------------------| 
A|--------------------------------------|--------------------------------------| 
E|--------------------------------------|--------------------------------------| 

Outro 
        A                B            C#m7            E 
E|--5-5--5-5-5-5-|--2-2--2-2-2-2-|--4-4--4-4-4-4-|--7-7--7-7-7-7-| 
B|--5-5--5-5-5-5-|--4-4--4-4-4-4-|--5-5--5-5-5-5-|--9-9--9-9-9-9-| 
G|--6-6--6-6-6-6-|--4-4--4-4-4-4-|--6-6--6-6-6-6-|--9-9--9-9-9-9-|  
D|--7-7--7-7-7-6-|--4-4--4-4-4-4-|--7-7--7-7-7-7-|--9-9--9-9-9-9-| 
A|---------------|---------------|---------------|---------------| 
E|---------------|---------------|---------------|---------------| 

PM......................    
E|-----------------------| 
B|-----------------------| 
G|-----------------------| (x4) 
D|--9-9-6-6-6-9-9-9-9-9--| 
A|--7-7-------7-7-7-7-7--| 
E|--0-0-4-4-4-0-0-0-0-0--| 

Chorus 
        A                B            C#m7            E 
E|--5-5--5-5-5--|--2-2--2-2-2--|--4-4--4-4-4--|--7-7--7-7-7--| 
B|--5-5--5-5-5--|--4-4--4-4-4--|--5-5--5-5-5--|--9-9--9-9-9--| 
G|--6-6--6-6-6--|--4-4--4-4-4--|--4-4--4-4-4--|--9-9--9-9-9--| (x10) 
D|--7-7--7-7-7--|--4-4--4-4-4--|--6-6--6-6-6--|--9-9--9-9-9--| 
A|--------------|--------------|--------------|--------------| 
E|--------------|--------------|--------------|--------------| 

GII 
E|-----------| 
B|--9-9-9-9--| 
G|-----------| 
D|--6-6-6-6--| 
A|-----------| 
E|-----------| 

E|----------------| 
B|---9-7-----9-9--| 
G|-------9-9------| (x2) 
D|---6-4-----6-6--| 
A|-------7-7------| 
E|----------------| 
                           (x10) 
E|----------------| 
B|---9-7---9------| 
G|-------9---9-9--| (x2) 
D|---6-4---6------| 
A|-------7---7-7--| 
E|----------------| 

E|-----------------------| 
B|--9-9-9--9-9-9--9--9-9-| 
G|-----------------------| 
D|--6-6-6--6-6-6--6--6-6-| 
A|-----------------------| 
E|-----------------------| 

Keyboard Bridge 

Outro 
E|---7-7--7-7-7--7-7-| 
B|---9-9--9-9-9--9-9-| 
G|---9-9--9-9-9--9-9-|  
D|---9-9--9-9-9--9-9-| 
A|-------------------| 
E|-------------------| 
(Repeat until the end) 


************************************ 

| p   Pull-off 
| b   Bend 
| ~   Vibrato 
| PM  Palm mute 

************************************ 
  

cifra enviadasem correções
enviado porenviada por:PAULLET3
top 5 | porter
top rock'n roll
Outras músicas do artista letras do(a) Porter
Top cifras »Top artistas »
Petaxxon Comunicação Online
Cifras.com.br - Melhor e mais completo site de cifras e tablaturas do Brasil
Mais de 1 milhão de acordes de músicas cadastradas desde 2003
As informações contidas no nosso site são colaborações de seus usuários e podem conter erros, sendo assim, não nos responsabilizamos sobre nenhuma destas.
close
menos
mais
close
Cor dos acordes:

Cor da letra:

 

save
close
close
 
redimensionar