Cifras e Tablaturas
Power Trip

Power Trip

Heretics Fork

Cifras Cancelar Versão de Impressão

Power Trip - Heretics Fork

Tom: B

  			
E|------------------------------| 
B|------------------------------| 
G|------------------------------| 
D|------------------------------| 
A|-----8--7--6--7-6-5-4-6-5-4-3-| 
E|-0-0-6--5--4--5-4-3-2-4-3-2-1-| 
   * *                  * * * *   


L 
E|----------------------------------------------------------------------------------| 
B|----------------------------------------------------------------------------------| 
G|-----------------------------------------------------------------------------8--3-| 
D|-9--------------9------------------------------9--------------9--------------8--3-| 
A|-7--------------7--------------8-8-7-7-5-5-7-7-7--------------7--------------6--1-| 
E|-0--0-0-0-0-0-0-0--0-0-0-0-0-0-----------------0--0-0-0-0-0-0-0--0-0-0-0-0-0------| 
      * * * * * *    * * * * * * * * * * * * * *    * * * * * *    * * * * * *  
R 
E|----------------------------------------------------------------------------------| 
B|----------------------------------------------------------------------------------| 
G|-----------------------------------------------------------------------------8--3-| 
D|-----------------------------------------------------------------------------8--3-| 
A|-2---------------------------------------------------------------------------6--1-| 
E|-0--------------------------------------------------------------------------------| 
     | 



L 
E|----------------------------------------------------------------------------------------------| 
B|----------------------------------------------------------------------------------------------| 
G|----------------------------------------------------------------------------------------------| 
D|-9--------------9------------------------------9--------------9--------------8----------------| 
A|-7--------------7--------------8-8-7-7-5-5-7-7-7--------------7--------------6--8--7-----7--3-| 
E|-0--0-0-0-0-0-0-0--0-0-0-0-0-0-----------------0--0-0-0-0-0-0-0--0-0-0-0-0-0----6--5--0--5--1-| 
      * * * * * *    * * * * * * * * * * * * * *    * * * * * *    * * * * * *  
R 
E|------------------------------------------------------------------------------------------------| 
B|------------------------------------------------------------------------------------------------| 
G|------------------------------------------------------------------------------------------------| 
D|--------------------------------3----2----0-----------------------------------7-----------------| 
A|-2--------------2---------------3----2----0----2---------------2--------------6--8--7-----7--3--| 
E|-0--------------0------------------------------0---------------0-----------------6--5--0--5--1--| 
     |              |                              |               | 




0:12 

E|----------------------------------------------------------------------------------| 
B|----------------------------------------------------------------------------------| 
G|-----------------------------------------------------------------------------8--3-| 
D|-9--------------9------------------------------9--------------9--------------8--3-| 
A|-7--------------7--------------8-8-7-7-5-5-7-7-7--------------7--------------6--1-| 
E|-0--0-0-0-0-0-0-0--0-0-0-0-0-0-----------------0--0-0-0-0-0-0-0--0-0-0-0-0-0------| 
      * * * * * *    * * * * * * * * * * * * * *    * * * * * *    * * * * * *  

E|----------------------------------------------------------------------------------------------| 
B|----------------------------------------------------------------------------------------------| 
G|----------------------------------------------------------------------------------------------| 
D|-9--------------9------------------------------9--------------9--------------8----------------| 
A|-7--------------7--------------8-8-7-7-5-5-7-7-7--------------7--------------6--8--7-----7--3-| 
E|-0--0-0-0-0-0-0-0--0-0-0-0-0-0-----------------0--0-0-0-0-0-0-0--0-0-0-0-0-0----6--5--0--5--1-| 
      * * * * * *    * * * * * * * * * * * * * *    * * * * * *    * * * * * *  





0:19 

E|-------------------------------------------------------------------------| 
B|-------------------------------------------------------------------------| 
G|-----------------------------------------------------------------8--3----| 
D|-----------------------------------------------------------------8--3----| 
A|-2--------2------------------------------------------------------6--1----| 
E|-0-000000-0-000000-0-000000-0-0000000-0-000000-0-000000-0-000000---------| 
     ******   ****** * ****** * ******* * ****** * ****** * ****** 


E|---------------------------------------------------------------------------| 
B|---------------------------------------------------------------------------| 
G|---------------------------------------------------------------------------| 
D|--------------------------------------------------------8------------------| 
A|-2--------2---------------------------------------------6--8--7-----7--3---| 
E|-0-000000-0-000000-0-000000-0-0000000-0-000000-0-000000----6--5--0--5--1---| 
     ******   ****** * ****** * ******* * ****** * ******  



E|-------------------------------------------------------------------------| 
B|-------------------------------------------------------------------------| 
G|-----------------------------------------------------------------8--3----| 
D|-----------------------------------------------------------------8--3----| 
A|-2--------2------------------------------------------------------6--1----| 
E|-0-000000-0-000000-0-000000-0-0000000-0-000000-0-000000-0-000000---------| 
     ******   ****** * ****** * ******* * ****** * ****** * ****** 


E|-------------------------------------------------------------------------| 
B|-------------------------------------------------------------------------| 
G|-------------------------------------------------------------------------| 
D|--------------------------------------------------------8--------7-------| 
A|-2--------2---------------------------------------------6--8--7--5--7--6-| 
E|-0-000000-0-000000-0-000000-0-0000000-0-000000-0-000000----6--5-----5--4-| 
     ******   ****** * ****** * ******* * ****** * ******  




0:39 


E|---------------------------------------------------------------| 
B|---------------------------------------------------------------| 
G|---------------------------------------------------------------| 
D|-------4---------------2----------9----8--------------2--------| 
A|-5-----2--4------3-----0--2-------7----6--8-----3-----0--2-----| 
E|-3--------2------1--------0---------------6-----1--------0-----| 


E|---------------------------------------------------------------| 
B|---------------------------------------------------------------| 
G|---------------------------------------------------------------| 
D|-------4---------------2---------------4------------2----------| 
A|-5-----2--4------3-----0--2------5-----2--4-----3---0----------| 
E|-3--------2------1--------0------3--------2-----1-----3-1-3----| 
                                                        * * *  



0:57 


E|----------------------------------------------------------------------------------| 
B|----------------------------------------------------------------------------------| 
G|-----------------------------------------------------------------------------8--3-| 
D|-9--------------9------------------------------9--------------9--------------8--3-| 
A|-7--------------7--------------8-8-7-7-5-5-7-7-7--------------7--------------6--1-| 
E|-0--0-0-0-0-0-0-0--0-0-0-0-0-0-----------------0--0-0-0-0-0-0-0--0-0-0-0-0-0------| 
      * * * * * *    * * * * * * * * * * * * * *    * * * * * *    * * * * * *  

                                                                               L 
E|----------------------------------------------------------------------------------------------| 
B|----------------------------------------------------------------------------------------------| 
G|----------------------------------------------------------------------------------------------| 
D|-9--------------9------------------------------9--------------9--------------8--------7-------| 
A|-7--------------7--------------8-8-7-7-5-5-7-7-7--------------7--------------6--8--7--7--7--3-| 
E|-0--0-0-0-0-0-0-0--0-0-0-0-0-0-----------------0--0-0-0-0-0-0-0--0-0-0-0-0-0----6--5-----5--1-| 
      * * * * * *    * * * * * * * * * * * * * *    * * * * * *    * * * * * *  




1:05 



E|-------------------------------------------------------------------------| 
B|-------------------------------------------------------------------------| 
G|-----------------------------------------------------------------8--3----| 
D|-----------------------------------------------------------------8--3----| 
A|-2--------2------------------------------------------------------6--1----| 
E|-0-000000-0-000000-0-000000-0-0000000-0-000000-0-000000-0-000000---------| 
     ******   ****** * ****** * ******* * ****** * ****** * ****** 


E|---------------------------------------------------------------------------| 
B|---------------------------------------------------------------------------| 
G|---------------------------------------------------------------------------| 
D|--------------------------------------------------------8------------------| 
A|-2--------2---------------------------------------------6--8--7-----7--3---| 
E|-0-000000-0-000000-0-000000-0-0000000-0-000000-0-000000----6--5--0--5--1---| 
     ******   ****** * ****** * ******* * ****** * ******  


E|-------------------------------------------------------------------------| 
B|-------------------------------------------------------------------------| 
G|-----------------------------------------------------------------8--3----| 
D|-----------------------------------------------------------------8--3----| 
A|-2--------2------------------------------------------------------6--1----| 
E|-0-000000-0-000000-0-000000-0-0000000-0-000000-0-000000-0-000000---------| 
     ******   ****** * ****** * ******* * ****** * ****** * ****** 


E|-------------------------------------------------------------------------| 
B|-------------------------------------------------------------------------| 
G|-------------------------------------------------------------------------| 
D|--------------------------------------------------------9--------7-------| 
A|-2--------2---------------------------------------------7--8--7--5--7--6-| 
E|-0-000000-0-000000-0-000000-0-0000000-0-000000-0-000000-0--6--5-----5--4-| 
     ******   ****** * ****** * ******* * ****** * ******  




1:25 


E|---------------------------------------------------------------| 
B|---------------------------------------------------------------| 
G|---------------------------------------------------------------| 
D|-------4---------------2----------9----8--------------2--------| 
A|-5-----2--4------3-----0--2-------7----6--8-----3-----0--2-----| 
E|-3--------2------1--------0---------------6-----1--------0-----| 


E|---------------------------------------------------------------| 
B|---------------------------------------------------------------| 
G|---------------------------------------------------------------| 
D|-------4---------------2---------------4------------2----------| 
A|-5-----2--4------3-----0--2------5-----2--4-----3---0----------| 
E|-3--------2------1--------0------3--------2-----1-----3-1-3----| 
                                                        * * *  




1:44 


1 
E|-------------------------------------------------| 
B|-------------------------------------------------| 
G|-7-9-7-9-10-9--9-10-12-10--10-12-14-12-10-9-9~~--| 
D|-------------------------------------------------| 
A|-------------------------------------------------| 
E|-------------------------------------------------| 

2 
E|-------------------------------------------------| 
B|-------------------------------------------------| 
G|-------------------------------------------------| 
D|-------------------------------------------------| 
A|-2---------------2-------------------------------| 
E|-0---------------0-------------------------------| 
                   * 



1 
E|---------------------------------------------------------------| 
B|-------------------------^-------------------------------------| 
G|-10---9-------10-9------9-10-10~~~~-------------10/12~~~-------| 
D|---------10---------10-----------------------------------------| 
A|---------------------------------------------------------------| 
E|---------------------------------------------------------------| 
        *   *    * *   * 
2 
E|---------------------------------------------------------------| 
B|---------------------------------------------------------------| 
G|-------------------------------------------------------------3-| 
D|----------------------------------------------------------5--3-| 
A|-------------------------------------------------33333333-5--1-| 
E|-000000000000000000000000000000001111111111111111---------3----| 
   ******************************************************** 




1 
E|-12--17-12-12-12-12-12-12-12-17-12-12-12-12-12-12-12-17-12-12-12-12-12-12-12-17-12-12-12-12-12-12-12| 
B|----------------------------------------------------------------------------------------------------| 
G|----------------------------------------------------------------------------------------------------| 
D|----------------------------------------------------------------------------------------------------| 
A|----------------------------------------------------------------------------------------------------| 
E|----------------------------------------------------------------------------------------------------| 

cont. 
E|-15-13-12------------------------------------------------------| 
B|----------15-13-12---------------------------------------------| 
G|-------------------14-13-12------------------------------------| 
D|----------------------------15-14-12---------------------------| 
A|-------------------------------------15-14-12------------------| 
E|----------------------------------------------15--13--12----\--| 

2 
E|---------------------------------------------------------------| 
B|---------------------------------------------------------------| 
G|-------------------------------------------------------------3-| 
D|----------------------------------------------------------5--3-| 
A|-------------------------------------------------33333333-5--1-| 
E|-000000000000000000000000000000001111111111111111---------3----| 
   ******************************************************** 


1 
E|-----------------------------------------------------------------------____------| 
B|----------------------------------------------------------------------/    \-----| 
G|------------------------------------------------10-9-7--------10-9-7-9-10-9-7-9~~| 
D|-----------9---------10---------9--------10-9-7--------10-9-7--------------------| 
A|-7--7-7-7-----7-7-7------7-7-7-----7-7-7-----------------------------------------| 
E|---------------------------------------------------------------------------------| 
      * * *     * * *      * * *     * * *  * * *  * * *  * * *  * * * 

2 
E|---------------------------------------------------------------| 
B|---------------------------------------------------------------| 
G|-------------------------------------------------------------3-| 
D|----------------------------------------------------------5--3-| 
A|-------------------------------------------------33333333-5--1-| 
E|-000000000000000000000000000000001111111111111111---------3----| 
   ******************************************************** 


1 
E|-15-17-19-17-15-17-15-14-15-14-12-14-12-10-12-10-8-10-8-7-8-7-5--------PH)-----------| 
B|----------------------------------------------------------------8-5-8~~8---H---------| 
G|---------------------------------------------------------------------------9-BAR DIVE| 
D|-------------------------------------------------------------------------------------| 
A|-------------------------------------------------------------------------------------| 
E|-------------------------------------------------------------------------------------| 

2 
E|-------------------------------------------------------------------------------------| 
B|-------------------------------------------------------------------------------------| 
G|-----------------------------------------------------------------------5-------3-----| 
D|-2-----------------------------------3---------------------------------5----5--3-----| 
A|-2-----------------------------------3---------------------------------3----5--1-----| 
E|-0-----------------------------------1--------------------------------------3--------| 





2:05 


E|----------------------------------------------------------------------------------| 
B|----------------------------------------------------------------------------------| 
G|-----------------------------------------------------------------------------8--3-| 
D|-9--------------9------------------------------9--------------9--------------8--3-| 
A|-7--------------7--------------8-8-7-7-5-5-7-7-7--------------7--------------6--1-| 
E|-0--0-0-0-0-0-0-0--0-0-0-0-0-0-----------------0--0-0-0-0-0-0-0--0-0-0-0-0-0------| 
      * * * * * *    * * * * * * * * * * * * * *    * * * * * *    * * * * * *  

                                                                                
E|----------------------------------------------------------------------------------------------| 
B|----------------------------------------------------------------------------------------------| 
G|----------------------------------------------------------------------------------------------| 
D|-9--------------9------------------------------9--------------9--------------8----------------| 
A|-7--------------7--------------8-8-7-7-5-5-7-7-7--------------7--------------6--8--7-----7--6-| 
E|-0--0-0-0-0-0-0-0--0-0-0-0-0-0-----------------0--0-0-0-0-0-0-0--0-0-0-0-0-0----6--5--0--5--4-| 
      * * * * * *    * * * * * * * * * * * * * *    * * * * * *    * * * * * *  




E|---------------------------------------------------------------| 
B|---------------------------------------------------------------| 
G|---------------------------------------------------------------| 
D|-------4---------------2----------9----8--------------2--------| 
A|-5-----2--4------3-----0--2-------7----6--8-----3-----0--2-----| 
E|-3--------2------1--------0---------------6-----1--------0-----| 


E|---------------------------------------------------------------| 
B|---------------------------------------------------------------| 
G|---------------------------------------------------------------| 
D|-------4---------------2---------------4--------------2--------| 
A|-5-----2--4------3-----0--2------5-----2--4-----3-----0--2-----| 
E|-3--------2------1--------0------3--------2-----1--------0-----| 
                                                         


                L 
E|------------------------------| 
B|------------------------------| 
G|------------------------------| 
D|------------------------------| 
A|-----8--7--6--7-6-5-4-6-5-4-3-| 
E|-0-0-6--5--4--5-4-3-2-4-3-2-1-| 
   * *                  * * * *   





2:32 


E|-------------------------------------------------------------------| 
B|-------------------------------------------------------------------| 
G|---------------------------------------------------------------3---| 
D|---------------------------------------------------------------3---| 
A|-2-2-2-2-2-2-2-2-2-2-2-2-2-2-2-2-2-2-2-2-2-2-2-2-2-2-2-2-3-2-3-1---| 
E|-0-0-0-0-0-0-0-0-0-0-0-0-0-0-0-0-0-0-0-0-0-0-0-0-0-0-0-0-1-0-1-----| 
     * * * * * * * * * * * * * * * * * * * * * * * * * * * 

E|----------------------------------------------------------------| 
B|----------------------------------------------------------------| 
G|----------------------------------------------------------------| 
D|-----------------------------------------------------3-3-3--2---| 
A|-2-2-2-2-2-2-2-2-2-2-2-2-2-2-2-2-2-2-2-2-2-2-2-2-2-2-X-X-X------| 
E|-0-0-0-0-0-0-0-0-0-0-0-0-0-0-0-0-0-0-0-0-0-0-0-0-0-0-1-1-1------| 
   * * * * * * * * * * * * * * * * * * * * * * * * * *  


2:47 

E|-------------------------------------------------------------------| 
B|-------------------------------------------------------------------| 
G|-------------------------------------------------------------------| 
D|-9-----------8-------------------9-----------8---------------------| 
A|-7-----9-8---6-----8-7---8-7-6---7-----9-8---6-----8-7---8-7-6-----| 
E|---0-0-7-6-0---0-0-6-5-0-6-5-4-0---0-0-7-6-0---0-0-6-5-0-6-5-4-0---| 
     * *     *   * *     *       *   * *     *   * *     *       * 


E|---------------------------------------------------------------| 
B|---------------------------------------------------------------| 
G|---------------------------------------------------------------| 
D|-9-----------8-------------------9-----------8-----------------| 
A|-7-----9-8---6-----8-7---8-7-6---7-----9-8---6-----8-7---8-----| 
E|---0-0-7-6-0---0-0-6-5-0-6-5-4-0---0-0-7-6-0---0-0-6-5-0-6-\---| 
     * *     *   * *     *       *   * *     *   * *     *        



E|-------------------------------------------------------------------| 
B|-------------------------------------------------------------------| 
G|---------------------------------------------------------------3---| 
D|---------------------------------------------------------------3---| 
A|-2-2-2-2-2-2-2-2-2-2-2-2-2-2-2-2-2-2-2-2-2-2-2-2-2-2-2-2-3-2-3-1---| 
E|-0-0-0-0-0-0-0-0-0-0-0-0-0-0-0-0-0-0-0-0-0-0-0-0-0-0-0-0-1-0-1-----| 
   * * * * * * * * * * * * * * * * * * * * * * * * * * * * 


E|----------------------------------------------------------------| 
B|----------------------------------------------------------------| 
G|----------------------------------------------------------------| 
D|-----------------------------------------------------3-3-3--2---| 
A|-2-2-2-2-2-2-2-2-2-2-2-2-2-2-2-2-2-2-2-2-2-2-2-2-2-2-X-X-X------| 
E|-0-0-0-0-0-0-0-0-0-0-0-0-0-0-0-0-0-0-0-0-0-0-0-0-0-0-1-1-1------| 
   * * * * * * * * * * * * * * * * * * * * * * * * * *  



E|-------------------------------------------------------------------| 
B|-------------------------------------------------------------------| 
G|-------------------------------------------------------------------| 
D|-9-----------8-------------------9-----------8---------------------| 
A|-7-----9-8---6-----8-7---8-7-6---7-----9-8---6-----8-7---8-7-6-----| 
E|---0-0-7-6-0---0-0-6-5-0-6-5-4-0---0-0-7-6-0---0-0-6-5-0-6-5-4-0---| 
     * *     *   * *     *       *   * *     *   * *     *       * 

                                   L           B 
E|---------------------------------------------------------------| 
B|---------------------------------------------------------------| 
G|---------------------------------------------------------------| 
D|-9-----------8-------------------9-----------8-----------------| 
A|-7-----9-8---6-----8-7---8-7-6---7-----9-8---6-----8-7---8-7-2-| 
E|---0-0-7-6-0---0-0-6-5-0-6-5-4-0---0-0-7-6-0---0-0-6-5-0-6-5-0-| 
     * *     *   * *     *       *   * *     *   * *     *        



3:20 

E|-------------------------------------------------------------------| 
B|-------------------------------------------------------------------| 
G|-------------------------------------------------------------------| 
D|-9-----------8-------------------9-----------8---------------------| 
A|-7-----9-8---6-----8-7---8-7-6---7-----9-8---6-----8-7---8-7-6-----| 
E|---0-0-7-6-0---0-0-6-5-0-6-5-4-0---0-0-7-6-0---0-0-6-5-0-6-5-4-0---| 
     * *     *   * *     *       *   * *     *   * *     *       * 


E|---------------------------------------------------------------| 
B|---------------------------------------------------------------| 
G|---------------------------------------------------------------| 
D|-9-----------8-------------------9-----------8-----------------| 
A|-7-----9-8---6-----8-7---8-7-6---7-----9-8---6-----8-7---8-----| 
E|---0-0-7-6-0---0-0-6-5-0-6-5-4-0---0-0-7-6-0---0-0-6-5-0-6-\---| 
     * *     *   * *     *       *   * *     *   * *     *        



E|-------------------------------------------------------------------| 
B|-------------------------------------------------------------------| 
G|---------------------------------------------------------------3---| 
D|---------------------------------------------------------------3---| 
A|-2-2-2-2-2-2-2-2-2-2-2-2-2-2-2-2-2-2-2-2-2-2-2-2-2-2-2-2-3-2-3-1---| 
E|-0-0-0-0-0-0-0-0-0-0-0-0-0-0-0-0-0-0-0-0-0-0-0-0-0-0-0-0-1-0-1-----| 
   * * * * * * * * * * * * * * * * * * * * * * * * * * * * 


E|--------------------------------------------------------------| 
B|--------------------------------------------------------------| 
G|--------------------------------------------------------------| 
D|--------------------------------------------------------------| 
A|-2-2-2-2-2-2-2-2-2-2-2-2-2-2-2-2-2-2-2-2-2-2-2-2-2-2-2-2-2-2--| 
E|-0-0-0-0-0-0-0-0-0-0-0-0-0-0-0-0-0-0-0-0-0-0-0-0-0-0-0-0-0-0--| 
   * * * * * * * * * * * * * * * * * * * * * * * * * * * * * * 


L 
E|------------------------------| 
B|------------------------------| 
G|------------------------------| 
D|--8--7--6---------------------| 
A|--8--7--6--7-6-5-4-6-5-4-3-2--| 
E|--6--5--4--5-4-3-2-4-3-2-1-0--| 
                     * * * *   | 
R 
E|------------------------------| 
B|------------------------------| 
G|------------------------------| 
D|------------------------------| 
A|--8--7--6------------------2--| 
E|--6--5--4------------------0--| 
                              | 
    	
fixar
fixar inscrever-se

enviado porenviado por: fernsantana
cifra enviadaCorrigida por: sem correções
logo top cifrasComente
ico música do artistaMúsicas deste artista
ico curtiuCurtiu?
ico destaqueDestaque
Petaxxon Comunicação Online

Cifras.com.br - Melhor e mais completo site de cifras e tablaturas do Brasil Mais de 1 milhão de acordes de músicas cadastradas desde 2003
As informações contidas no nosso site são colaborações de seus usuários e podem conter erros, sendo assim, não nos responsabilizamos sobre nenhuma destas.

close
menos
mais
close
Cor dos acordes:

Cor da letra:

close
Alinhar acordes a direita Alinhar acordes a esquerda Alinhar acordes em baixo Alinhar acordes no topo
close
  Mostrar todos os acordes Esconder acordes muito fáceis Esconder acordes fáceis Esconder acordes intermediários
redimensionar
glossário