Cifras e Tablaturas
Power Trip

Power Trip

Vultures

Cifras Cancelar Versão de Impressão

Power Trip - Vultures

Tom: Eb

  			Eb-Ab-Db-Gb-Bb-Eb 







Eb|--------------------------------------------------------------------------------------------| 
Bb|--------------------------------------------------------------------------------------------| 
Gb|--------------------------------------------------------------------------------------------| 
Db|-9------10-------9-------12------10-----14-----9------10-------9-------12------10-----14----| 
Ab|-7-------8-------7-------10-------8-----12-----7-------8-------7-------10-------8-----12----| 
Eb|----0-0-----0-0-----0-0------0-0-----0------0-----0-0-----0-0-----0-0------0-0-----0------0-| 
       * *     * *     * *      * *     *      *     * *     * *     * *      * *     *      * 



Eb|--------------------------------------------------------------------------------------------| 
Bb|--------------------------------------------------------------------------------------------| 
Gb|--------------------------------------------------------------------------------------------| 
Db|-9------10-------9-------12------10-----14-----9------10-------9-------12------10-----14----| 
Ab|-7-------8-------7-------10-------8-----12-----7-------8-------7-------10-------8-----12----| 
Eb|----0-0-----0-0-----0-0------0-0-----0------0-----0-0-----0-0-----0-0------0-0-----0------0-| 
       * *     * *     * *      * *     *      *     * *     * *     * *      * *     *      * 



0:12 


Eb|-------------------------------------------------------------------------------------| 
Bb|-------------------------------------------------------------------------------------| 
Gb|-------------------------------------------------------------------------------------| 
Db|-9------10------9------12------10----14----9------10------9------12------10----14----| 
Ab|-7-0000--8-0000-7-0000-10-0000--8-00-12-00-7-0000--8-0000-7-0000-10-0000--8-00-12-00-| 
Eb|-------------------------------------------------------------------------------------| 
      ****    ****   ****    ****    **    **   ****    ****   ****    ****    **    ** 


Eb|---------------------------------------------------------------------------------| 
Bb|---------------------------------------------------------------------------------| 
Gb|---------------------------------------------------------------------------------| 
Db|-9------10------9------12------10----14----9------10------9------12-------10--7--| 
Ab|-7-0000--8-0000-7-0000-10-0000--8-00-12-00-7-0000--8-0000-7-0000-10-0000---8--5--| 
Eb|---------------------------------------------------------------------------------| 
      ****    ****   ****    ****    **    **   ****    ****   ****    ****     


Eb|-------------------------------------------------------------------------------------| 
Bb|-------------------------------------------------------------------------------------| 
Gb|-------------------------------------------------------------------------------------| 
Db|-9------10------9------12------10----14----9------10------9------12------10----14----| 
Ab|-7-0000--8-0000-7-0000-10-0000--8-00-12-00-7-0000--8-0000-7-0000-10-0000--8-00-12-00-| 
Eb|-------------------------------------------------------------------------------------| 
      ****    ****   ****    ****    **    **   ****    ****   ****    ****    **    ** 


Eb|---------------------------------------------------------------------------------| 
Bb|---------------------------------------------------------------------------------| 
Gb|---------------------------------------------------------------------------------| 
Db|-9------10------9------12------10----14----9------10------9------12-------10--7--| 
Ab|-7-0000--8-0000-7-0000-10-0000--8-00-12-00-7-0000--8-0000-7-0000-10-0000---8--5--| 
Eb|---------------------------------------------------------------------------------| 
      ****    ****   ****    ****    **    **   ****    ****   ****    ****   



0:34 

L 
Eb|--------------------------------------------| 
Bb|--------------------------------------------| 
Gb|--------------------------------------------| 
Db|--10---------------7------------------7-9---| 
Ab|---8---------------5------------------5/7---| 
Eb|--------------------------------------------| 

R 
Eb|--------------------------------------------| 
Bb|--------------------------------------------| 
Gb|--------------------------------------------| 
Db|--------------------------------------------| 
Ab|-/12~~-------------9~~----------------9/12--| 
Eb|--------------------------------------------| 





Eb|-------------------------------------------------------------------------------------| 
Bb|-------------------------------------------------------------------------------------| 
Gb|-------------------------------------------------------------------------------------| 
Db|-9------10------9------12------10----14----9------10------9------12------10----14----| 
Ab|-7-------8------7------10-------8----12----7-------8------7------10-------8----12----| 
Eb|---0000----0000---0000----0000----00----00---0000----0000---0000----0000----00----00-| 
      ****    ****   ****    ****    **    **   ****    ****   ****    ****    **    ** 


Eb|----------------------------------------------------------------------------------| 
Bb|----------------------------------------------------------------------------------| 
Gb|----------------------------------------------------------------------------------| 
Db|-9------10------9------12------10----14----9------10------9------12------10---7---| 
Ab|-7-------8------7------10-------8----12----7-------8------7------10-------8---5---| 
Eb|---0000----0000---0000----0000----00----00---0000----0000---0000----0000----------| 
      ****    ****   ****    ****    **    **   ****    ****   ****    ****     




Eb|-------------------------------------------------------------------------------------| 
Bb|-------------------------------------------------------------------------------------| 
Gb|-------------------------------------------------------------------------------------| 
Db|-9------10------9------12------10----14----9------10------9------12------10----14----| 
Ab|-7-------8------7------10-------8----12----7-------8------7------10-------8----12----| 
Eb|---0000----0000---0000----0000----00----00---0000----0000---0000----0000----00----00-| 
      ****    ****   ****    ****    **    **   ****    ****   ****    ****    **    ** 


Eb|----------------------------------------------------------------------------------| 
Bb|----------------------------------------------------------------------------------| 
Gb|----------------------------------------------------------------------------------| 
Db|-9------10------9------12------10----14----9------10------9------12------10---7---| 
Ab|-7-------8------7------10-------8----12----7-------8------7------10-------8---5---| 
Eb|---0000----0000---0000----0000----00----00---0000----0000---0000----0000----------| 
      ****    ****   ****    ****    **    **   ****    ****   ****    ****     



1:00 


L 
Eb|--------------------------------------------| 
Bb|--------------------------------------------| 
Gb|--------------------------------------------| 
Db|--10---------------7------------------7-9---| 
Ab|---8---------------5------------------5/7---| 
Eb|--------------------------------------------| 

R 
Eb|--------------------------------------------| 
Bb|--------------------------------------------| 
Gb|--------------------------------------------| 
Db|--------------------------------------------| 
Ab|-/12~~-------------9~~----------------9/12--| 
Eb|--------------------------------------------| 



1;04 


   R                           B 
Eb|------------------------------------------------------------------------------| 
Bb|------------------------------------------------------------------------------| 
Gb|------------------------------------------------------------------------------| 
Db|------9------10-12------------------------------------------------------------| 
Ab|------7--10---8-10--12--10--9------------------------------10--9--7--10--9--7-| 
Eb|-7-7------8---------10---8--7--7-7-7-7-7-7-7-7-7-7-7-7-7-7--8--7--5---8--7--5-| 
    * *                           * * * * * * * * * * * * * *  


Eb|------------------------------------------------------| 
Bb|------------------------------------------------------| 
Gb|------------------------------------------------------| 
Db|--------------------------------9------10-12----------| 
Ab|-9------------------------------7--10---8-10--12--10--| 
Eb|-7-7-7-7-7-7-7-7-7-7-7-7-7-7-7------8---------10---8--| 
      * * * * * * * * * * * * * *            


Eb|---------------------------------------------------| 
Bb|---------------------------------------------------| 
Gb|---------------------------------------------------| 
Db|---------------------------------------------------| 
Ab|-9------------------------------10--9--7--10--9--7-| 
Eb|-7--7-7-7-7-7-7-7-7-7-7-7-7-7-7--8--7--5---8--7--5-| 
       * * * * * * * * * * * * * * 

                                   R 
Eb|------------------------------------------------------| 
Bb|------------------------------------------------------| 
Gb|------------------------------------------------------| 
Db|--------------------------------9------10-12----------| 
Ab|-9------------------------------7--10---8-10--12--10--| 
Eb|-7-7-7-7-7-7-7-7-7-7-7-7-7-7-7------8---------10---8--| 
      * * * * * * * * * * * * * *            


Eb|---------------------------------------------------| 
Bb|---------------------------------------------------| 
Gb|---------------------------------------------------| 
Db|---------------------------------------------------| 
Ab|-9------------------------------10--9--7--10--9--7-| 
Eb|-7--7-7-7-7-7-7-7-7-7-7-7-7-7-7--8--7--5---8--7--5-| 
       * * * * * * * * * * * * * * 


Eb|------------------------------------------------------| 
Bb|------------------------------------------------------| 
Gb|------------------------------------------------------| 
Db|--------------------------------9------10-12----------| 
Ab|-9------------------------------7--10---8-10--12--10--| 
Eb|-7-7-7-7-7-7-7-7-7-7-7-7-7-7-7------8---------10---8--| 
      * * * * * * * * * * * * * *            


Eb|---------------------------------------------------| 
Bb|---------------------------------------------------| 
Gb|---------------------------------------------------| 
Db|---------------------------------------------------| 
Ab|-9------------------------------10--9--7--10--9--7-| 
Eb|-7--7-7-7-7-7-7-7-7-7-7-7-7-7-7--8--7--5---8--7--5-| 
       * * * * * * * * * * * * * * 


Eb|------------------------------------------------------| 
Bb|------------------------------------------------------| 
Gb|------------------------------------------------------| 
Db|--------------------------------9------10-12----------| 
Ab|-9------------------------------7--10---8-10--12--10--| 
Eb|-7-7-7-7-7-7-7-7-7-7-7-7-7-7-7------8---------10---8--| 
      * * * * * * * * * * * * * *            


Eb|---------------------------------------------------| 
Bb|---------------------------------------------------| 
Gb|---------------------------------------------------| 
Db|---------------------------------------------------| 
Ab|-9------------------------------10--9--7--10--9--7-| 
Eb|-7--7-7-7-7-7-7-7-7-7-7-7-7-7-7--8--7--5---8--7--5-| 
       * * * * * * * * * * * * * * 


Eb|------------------------------------------------------| 
Bb|------------------------------------------------------| 
Gb|------------------------------------------------------| 
Db|--------------------------------9------10-12----------| 
Ab|-9------------------------------7--10---8-10--12--10--| 
Eb|-7-7-7-7-7-7-7-7-7-7-7-7-7-7-7------8---------10---8--| 
      * * * * * * * * * * * * * *            



Eb|---------------------------------------------------| 
Bb|---------------------------------------------------| 
Gb|---------------------------------------------------| 
Db|---------------------------------------------------| 
Ab|-9------------------------------10--9--7--10--9--7-| 
Eb|-7--7-7-7-7-7-7-7-7-7-7-7-7-7-7--8--7--5---8--7--5-| 
       * * * * * * * * * * * * * * 


Eb|------------------------------------------------------| 
Bb|------------------------------------------------------| 
Gb|------------------------------------------------------| 
Db|--------------------------------9------10-12----------| 
Ab|-9------------------------------7--10---8-10--12--10--| 
Eb|-7-7-7-7-7-7-7-7-7-7-7-7-7-7-7------8---------10---8--| 
      * * * * * * * * * * * * * *            




1:40 

   R 
Eb|---------------------------------------------------| 
Bb|---------------------------------------------------| 
Gb|---------------------------------------------------| 
Db|---------------------------------------------------| 
Ab|-9------------------------------10--9--7--10--9--7-| 
Eb|-7--7-7-7-7-7-7-7-7-7-7-7-7-7-7--8--7--5---8--7--5-| 
       * * * * * * * * * * * * * * 

B 
Eb|------------------------------------------------------| 
Bb|------------------------------------------------------| 
Gb|------------------------------------------------------| 
Db|--------------------------------9------10-12----------| 
Ab|-9------------------------------7--10---8-10--12--10--| 
Eb|-7-7-7-7-7-7-7-7-7-7-7-7-7-7-7------8---------10---8--| 
      * * * * * * * * * * * * * *            


Eb|---------------------------------------------------| 
Bb|---------------------------------------------------| 
Gb|---------------------------------------------------| 
Db|---------------------------------------------------| 
Ab|-9------------------------------10--9--7--10--9--7-| 
Eb|-7--7-7-7-7-7-7-7-7-7-7-7-7-7-7--8--7--5---8--7--5-| 
       * * * * * * * * * * * * * * 


Eb|--------------------------------------------------------------------------| 
Bb|--------------------------------------------------------------------------| 
Gb|--------------------------------------------------------------------------| 
Db|--------------------------------9------10-12----------9-------------------| 
Ab|-9------------------------------7--10---8-10--12--10--7-------------------| 
Eb|-7-7-7-7-7-7-7-7-7-7-7-7-7-7-7------8---------10---8----------------------| 
      * * * * * * * * * * * * * *            






2:00 


Eb|---------------------------------------------------------------| 
Bb|---------------------------------------------------------------| 
Gb|---------------------------------------------------------------| 
Db|-9-------------------10----------------------------------------| 
Ab|-7--------------------8----------------------------------------| 
Eb|-0-----------0-0-0-0-------------------------------------------| 
                * * * * 




L 
Eb|------------------------------------------------------------------------------| 
Bb|------------------------------------------------------------------------------| 
Gb|------------------------------------------------------------------------------| 
Db|-------------9-------9-------9-------9-------9-------9-------9-----------10---| 
Ab|-------------7-------7-------7-------7-------7-------7-------7------------8---| 
Eb|-0-0-0-0-0-0-0-0-0-0-0-0-0-0-0-0-0-0-0-0-0-0-0-0-0-0-0-0-0-0-0-0-0-0-0-0------| 
    * * * * * *   * * *   * * *   * * *   * * *   * * *   * * *   * * * * * 

Eb|------------------------------------------------------------------------------| 
Bb|------------------------------------------------------------------------------| 
Gb|------------------------------------------------------------------------------| 
Db|-------------9------------------------------------------------------------10--| 
Ab|-------------7-------------------------------------------------------------8--| 
Eb|-0-0-0-0-0-0-0----------------------------------------------------0-0-0-0-----| 
    * * * * * *                                                      * * * * 




L 
Eb|-----------------------------------------------------------------------------| 
Bb|-----------------------------------------------------------------------------| 
Gb|-----------------------------------------------------------------------------| 
Db|------------------------------------------------------------------------10---| 
Ab|-------------------------------------------------------------------------8---| 
Eb|-0-0-0-0-0-0-0---0-0-0---0-0-0---0-0-0---0-0-0---0-0-0---0-0-0--0-0-0-0------| 
    * * * * * * *   * * *   * * *   * * *   * * *   * * *   * * *  * * * * 

Eb|-----------------------------------------------------------------------------| 
Bb|-----------------------------------------------------------------------------| 
Gb|-----------------------------------------------------------------------------| 
Db|-------------9----------------------------------------------------------10---| 
Ab|-------------7-----------------------------------------------------------8---| 
Eb|-0-0-0-0-0-0-0--------------------------------------------------0-0-0-0------| 
    * * * * * *                                                    * * * * 



L 
Eb|-----------------------------------------------------------------------------| 
Bb|-----------------------------------------------------------------------------| 
Gb|-----------------------------------------------------------------------------| 
Db|------------------------------------------------------------------------10---| 
Ab|-------------------------------------------------------------------------8---| 
Eb|-0-0-0-0-0-0-0---0-0-0---0-0-0---0-0-0---0-0-0---0-0-0---0-0-0--0-0-0-0------| 
    * * * * * * *   * * *   * * *   * * *   * * *   * * *   * * *  * * * * 

Eb|-----------------------------------------------------------------------------| 
Bb|-----------------------------------------------------------------------------| 
Gb|-----------------------------------------------------------------------------| 
Db|-------------9----------------------------------------------------------10---| 
Ab|-------------7-----------------------------------------------------------8---| 
Eb|-0-0-0-0-0-0-0--------------------------------------------------0-0-0-0------| 
    * * * * * *                                                    * * * * 



L 
Eb|-----------------------------------------------------------------------------| 
Bb|-----------------------------------------------------------------------------| 
Gb|-----------------------------------------------------------------------------| 
Db|------------------------------------------------------------------------10---| 
Ab|-------------------------------------------------------------------------8---| 
Eb|-0-0-0-0-0-0-0---0-0-0---0-0-0---0-0-0---0-0-0---0-0-0---0-0-0--0-0-0-0------| 
    * * * * * * *   * * *   * * *   * * *   * * *   * * *   * * *  * * * * 

Eb|-----------------------------------------------------------------------------| 
Bb|-----------------------------------------------------------------------------| 
Gb|-----------------------------------------------------------------------------| 
Db|-------------9----------------------------------------------------------10---| 
Ab|-------------7-----------------------------------------------------------8---| 
Eb|-0-0-0-0-0-0-0--------------------------------------------------0-0-0-0------| 
    * * * * * *                                                    * * * * 




Eb|---------------------------------------| 
Bb|---------------------------------------| 
Gb|---------------------------------------| 
Db|----15-----12-----15--14---------------| 
Ab|----13-----10-----13--12---------------| 
Eb|-0------0------0----------0-0-0-0-0-0--| 
    *      *      *          * * * * * *  


REPEATS/FADES OUT 

Eb|------------------------------------------------------------------------------------------| 
Bb|------------------------------------------------------------------------------------------| 
Gb|------------------------------------------------------------------------------------------| 
Db|-9-----10------------10-----12-------------12-----14-----15-----12-----15-14--------------| 
Ab|-7------8-------------8-----10-------------10-----12-----13-----10-----13-12--------------| 
Eb|----0------0-0-0-0-0-----0------0-0-0-0-0------0------0------0------0---------0-0-0-0-0-0-| 
       *      * * * * *     *      * * * * *      *      *      *      *         * * * * * * 
    	
fixar
fixar inscrever-se

enviado porenviado por: andrsouza
cifra enviadaCorrigida por: sem correções
logo top cifrasComente
ico música do artistaMúsicas deste artista
ico curtiuCurtiu?
ico destaqueDestaque
Petaxxon Comunicação Online

Cifras.com.br - Melhor e mais completo site de cifras e tablaturas do Brasil Mais de 1 milhão de acordes de músicas cadastradas desde 2003
As informações contidas no nosso site são colaborações de seus usuários e podem conter erros, sendo assim, não nos responsabilizamos sobre nenhuma destas.

close
menos
mais
close
Cor dos acordes:

Cor da letra:

close
Alinhar acordes a direita Alinhar acordes a esquerda Alinhar acordes em baixo Alinhar acordes no topo
close
  Mostrar todos os acordes Esconder acordes muito fáceis Esconder acordes fáceis Esconder acordes intermediários
redimensionar
glossário