Cifras e Tablaturas
Powerwolf

Powerwolf

In The Name Of God

Cifras Cancelar Versão de Impressão

Powerwolf - In The Name Of God

Tom: Bb

  			
Intro 

    all PM 
C |---------------------------------|---------------------------------| 
G |---------------------------------|---------------------------------| 
D#|---------------------------------|---------------------------------| 
A#|---------------------------------|---------------------------------| 
F |-0----------------------0--3--0--|-3----------------------3--5--3--| 
A#|-0----------------------0--3--0--|-3----------------------3--5--3--| 
      "In the name of God                In the name of God" 

    hold these chords 
C |-----------------------------|-------------------------------| 
G |-----------------------------|-------------------------------| 
D#|-----------------------------|-------------------------------|  play full  
A#|-----------------------------|-------------------------------|  Intro 2x 
F |-5---------------------------|-7-------------7---------------| 
A#|-5---------------------------|-7-------------7---------------| 
    "In the name of God we go to  heaven" 



PreVerse 
    Beats are shown above 

    1       2       3       4          1       2       3       4 
C |----------------------------------|----------------------------------| 
G |----------------------------------|----------------------------------| 
D#|----------------------------------|----------------------------------| 
A#|----------------------------------|----------------------------------| 
F |----------------------------------|----------------------------------| 
A#|-0-0-0-0-0-0-0-0-0-0-0-0-0-0-0----|-3-3-3-3-3-3-3-3-3-3-3-3-3-3-3----| 
    PM*************************        same PMs 

C |----------------------------------|----------------------------------| 
G |----------------------------------|----------------------------------| 
D#|----------------------------------|----------------------------------|  
A#|----------------------------------|----------------------------------| 
F |----------------------------------|----------------------------------| 
A#|-5-5-5-5-5-5-5-5-5-5-5-5-5-5-5----|-7-7-7-7-7-7-7---7-7-7-7-7-7-7----| 
    PM*************************        PM*********     PM********* 

C |----------------------------------|----------------------------------| 
G |----------------------------------|----------------------------------| 
D#|----------------------------------|----------------------------------| 
A#|----------------------------------|----------------------------------| 
F |----------------------------------|----------------------------------| 
A#|-0-0-0-0-0-0-0-0-0-0-0-0-0-0-0----|-3-3-3-3-3-3-3-3-3-3-3-3-3-3-3----| 
    PM*************************        same PMs 

C |----------------------------------|----------------------------------| 
G |----------------------------------|----------------------------------| 
D#|----------------------------------|----------------------------------|  
A#|----------------------------------|----------------------------------| 
F |----------------------------------|----------------------------------| 
A#|-5-5-5-5-5-5-5-5-5-5-5-5-5-5-5----|-7-7-7-7-7-7-7-7-7----------------| 
    PM*************************        PM************* 



Verse Part 1 

    A#5                             F5 
C |-------------------------------|-----------------------------| 
G |-------------------------------|-----------------------------| 
D#|-------------------------------|-----------------------------| 
A#|----------7-----7--5-----------|-5-----5--5-----5-----7--7---|  play 2x 
F |-5-----5--------------8--5-----|-------------------4---------| 
A#|-------------------------------|-----------------------------| 



Verse Part 2 

     
C |-----------------------------|--------------------------|-----------------------------| 
G |-----------------------------|--------------------------|-----------------------------| 
D#|-----------------------------|--------------------------|-----------------------------| 
A#|-3-----------3-5-----------5-|-7-----5-----3------------|-2---------------------------| 
F |-1---1-1-1-1-1-3---3-3-3-3-3-|-5-----3-----1------------|-0---0-0-0-0---0-0-0---0-0-0-| 
A#|-----------------------------|--------------------------|-----------------------------| 
        PM*****       *******                                    *********************** 

C |---------------------------------|-----------------------------|-------------------------| 
G |---------------------------------|-----------------------------|-------------------------| 
D#|---------------------------------|-----------------------------|-------------------------| 
A#|-2-------------------------------|-3-----------3-5-----------5-|-7-----7-----7-----------| 
F |-0---0-0-0---0---0-0-0---0-0-0---|-1---1-1-1-1-1-3---3-3-3-3-3-|-5-----5-----5-----------| 
A#|---------------------------------|-----------------------------|-------------------------| 
        PM***********************         *******       ******* 

C |---------------------------------|-----------------------------| 
G |---------------------------------|-----------------------------| 
D#|---------------------------------|-----------------------------| 
A#|---------------------------------|-----------------------------| 
F |-5-------------------------------|-7---------------------------| 
A#|-5---5-5-5---5---5-5-5---5-5-5---|-7---7-7-7---7---7-----------| 



Chorus 

    all PM 
C |---------------------------------|---------------------------------| 
G |---------------------------------|---------------------------------| 
D#|---------------------------------|---------------------------------| 
A#|---------------------------------|---------------------------------| 
F |-0----------------------0--3--0--|-3----------------------3--5--3--| 
A#|-0----------------------0--3--0--|-3----------------------3--5--3--| 
      "In the name of God                In the name of God" 

    hold these chords 
C |-----------------------------|-------------------------------| 
G |-----------------------------|-------------------------------| 
D#|-----------------------------|-------------------------------|  play full  
A#|-----------------------------|-------------------------------|  Intro 2x 
F |-5---------------------------|-7-------------7---------------| 
A#|-5---------------------------|-7-------------7---------------| 
    "In the name of God we go to  heaven" 



verse 2 Part 1 

    A#5                             F5 
C |-------------------------------|-----------------------------| 
G |-------------------------------|-----------------------------| 
D#|-------------------------------|-----------------------------| 
A#|----------7-----7--5-----------|-5-----5--5-----5-----7--7---|  play 2x 
F |-5-----5--------------8--5-----|-------------------4---------| 
A#|-------------------------------|-----------------------------| 



verse 2 Part 2 
C |-----------------------------|--------------------------|-----------------------------| 
G |-----------------------------|--------------------------|-----------------------------| 
D#|-----------------------------|--------------------------|-----------------------------| 
A#|-3-----------3-5-----------5-|-7-----5-----3------------|-2---------------------------| 
F |-1---1-1-1-1-1-3---3-3-3-3-3-|-5-----3-----1------------|-0---0-0-0-0---0-0-0---0-0-0-| 
A#|-----------------------------|--------------------------|-----------------------------| 
        PM*****       *******                                    *********************** 

C |---------------------------------|-----------------------------|-------------------------| 
G |---------------------------------|-----------------------------|-------------------------| 
D#|---------------------------------|-----------------------------|-------------------------| 
A#|-2-------------------------------|-3-----------3-5-----------5-|-7-----7-----7-----------| 
F |-0---0-0-0---0---0-0-0---0-0-0---|-1---1-1-1-1-1-3---3-3-3-3-3-|-5-----5-----5-----------| 
A#|---------------------------------|-----------------------------|-------------------------| 
        PM***********************         *******       ******* 

C |---------------------------------|-----------------------------| 
G |---------------------------------|-----------------------------| 
D#|---------------------------------|-----------------------------| 
A#|---------------------------------|-----------------------------| 
F |-5-------------------------------|-7---------------------------| 
A#|-5---5-5-5---5---5-5-5---5-5-5---|-7---7-7-7---7---7-----------| 



Chorus 2 

    all PM 
C |---------------------------------|---------------------------------| 
G |---------------------------------|---------------------------------| 
D#|---------------------------------|---------------------------------| 
A#|---------------------------------|---------------------------------| 
F |-0----------------------0--3--0--|-3----------------------3--5--3--| 
A#|-0----------------------0--3--0--|-3----------------------3--5--3--| 
      "In the name of God                In the name of God" 

    hold these chords 
C |-----------------------------|-------------------------------| 
G |-----------------------------|-------------------------------| 
D#|-----------------------------|-------------------------------|  play full  
A#|-----------------------------|-------------------------------|  Intro 2x 
F |-5---------------------------|-7-------------7---------------| 
A#|-5---------------------------|-7-------------7---------------| 
    "In the name of God we go to  heaven" 



Bridge 

    (1:43) 
C |----------------------|----------------------|---------------------|----------------| 
G |----------------------|----------------------|---------------------|----------------| 
D#|----------------------|----------------------|---------------------|----------------| 
A#|-8--------------------|-3--------------------|-0-------------------|-(0)------------| 
F |-8--------------------|-3--------------------|-0-------------------|-(0)------------| 
A#|-8--------------------|-3--------------------|-0-------------------|-(0)------------| 

C |----------------------|----------------------|---------------------|----------------------| 
G |----------------------|----------------------|---------------------|----------------------| 
D#|----------------------|----------------------|---------------------|----------------------| 
A#|-8--------------------|-3---------3----------|-5---------5---------|-------5--------------| 
F |-8--------------------|-3---------3----------|-5---------5---------|-------5--------------| 
A#|-8--------------------|-3---3-3-3-3----------|-5---5-5-5-5---------|-5-5-5-5----7----8----| 
                               PM***                  ***** 
C |----------------------|----------------------|---------------------|----------------| 
G |----------------------|----------------------|---------------------|----------------| 
D#|----------------------|----------------------|---------------------|----------------| 
A#|-8--------------------|-3--------------------|-0-------------------|-(0)------------| 
F |-8--------------------|-3--------------------|-0-------------------|-(0)------------| 
A#|-8--------------------|-3--------------------|-0-------------------|-(0)------------| 

C |----------------------|----------------------|---------------------|------------------| 
G |----------------------|----------------------|---------------------|------------------| 
D#|----------------------|----------------------|---------------------|------------------| 
A#|-1--------------------|-(1)------------------|-0-------------------|-(0)--------------| 
F |-1--------------------|-(1)------------------|-0-------------------|-(0)--------------| 
A#|-1--------------------|-(1)------------------|-0-------------------|-(0)--------------| 



PreVerse Returns 
    (2:10) 
    1       2       3       4          1       2       3       4 
C |----------------------------------|----------------------------------| 
G |----------------------------------|----------------------------------| 
D#|----------------------------------|----------------------------------| 
A#|----------------------------------|----------------------------------| 
F |----------------------------------|----------------------------------| 
A#|-0-0-0-0-0-0-0-0-0-0-0-0-0-0-0----|-3-3-3-3-3-3-3-3-3-3-3-3-3-3-3----| 
    PM*************************        same PMs 

C |----------------------------------|----------------------------------| 
G |----------------------------------|----------------------------------| 
D#|----------------------------------|----------------------------------|  
A#|----------------------------------|----------------------------------| 
F |----------------------------------|----------------------------------| 
A#|-5-5-5-5-5-5-5-5-5-5-5-5-5-5-5----|-7-7-7-7-7-7-7-7-7-7-7-7-7-7-7----| 
    PM*************************        same PMs 

C |----------------------------------|----------------------------------| 
G |----------------------------------|----------------------------------| 
D#|----------------------------------|----------------------------------| 
A#|----------------------------------|----------------------------------| 
F |----------------------------------|----------------------------------| 
A#|-0-0-0-0-0-0-0-0-0-0-0-0-0-0-0----|-3-3-3-3-3-3-3-3-3-3-3-3-3-3-3----| 
    PM*************************        same PMs 

C |----------------------------------|----------------------------------| 
G |----------------------------------|----------------------------------| 
D#|----------------------------------|----------------------------------|  
A#|----------------------------------|----------------------------------| 
F |----------------------------------|----------------------------------| 
A#|-5-5-5-5-5-5-5-5-5-5-5-5-5-5-5----|-7-7-7-7-7-7-7-7-7----------------| 
    PM*************************        PM************* 



Bridge 2 
  
    Rhythm begins: 
C |-------------------------|-------------------------| 
G |-------------------------|-------------------------| 
D#|-------------------------|-------------------------| 
A#|-------------------------|-------------------------| 
F |-5--5--5--5--5--5--5--5--|-5--5--5--5--5--5--5--5--| 
A#|-------------------------|-------------------------| 
  
  
    Rhythm Part - All PM   
C |-------------------------|-------------------------|-------------------------|-------------------------| 
G |-------------------------|-------------------------|-------------------------|-------------------------| 
D#|-------------------------|-------------------------|-------------------------|-------------------------| 
A#|-------------------------|-------------------------|-------------------------|-------------------------| 
F |-5--5--5--5--5--5--5--5--|-5--5--5--5--5--5--5--5--|-3--3--3--3--3--3--3--3--|-5--5--5--5--5--5--5--5--| 
A#|-------------------------|-------------------------|-------------------------|-------------------------| 
  | 
  |  Lead - all PM 
C |-------------------------|-------------------------|-------------------------|-------------------------| 
G |----10----10-------------|----10----10-------------|-------------------------|----10----10-------------| 
D#|-------12----10-12--9/10-|-------12----10-12--9/10-|----12--9-12-10-12-10\9--|-------12----10-12--9-10-| 
A#|-12----------------------|-12----------------------|-10----------------------|-12----------------------| 
F |-------------------------|-------------------------|-------------------------|-------------------------| 
A#|-------------------------|-------------------------|-------------------------|-------------------------| 
  
    Rhythm Part - All PM   

C |-------------------------|-------------------------|---------------|-------------------------------------| 
G |-------------------------|-------------------------|---------------|-------------------------------------| 
D#|-------------------------|-------------------------|-5-------------|-------------------------------------| 
A#|-------------------------|-------------------------|-5-------------|-7-----------------------------------| 
F |-5--5--5--5--5--5--5--5--|-5--5--5--5--5--5--5--5--|-3-------------|-7-----------------------------------| 
A#|-------------------------|-------------------------|---------------|-7-----------------------------------| 
  | 
  |  Lead - all PM 
C |-------------------------|-------------------------|---------------|-10h12h13-10h12h13-10h12h13-10h12h13-| 
G |----10----10-------------|----10----10-------------|---------------|-------------------------------------| 
D#|-------12----10-12--9/10-|-------12----10-12--9/10-|---------------|-------------------------------------| 
A#|-12----------------------|-12----------------------|---------------|-------------------------------------| 
F |-------------------------|-------------------------|---------------|-------------------------------------| 
A#|-------------------------|-------------------------|---------------|-------------------------------------| 


  
  
Harmonized Solo 
    Two guitar parts combined - one plays high harmony, other plays lower notes  

C |-13-13-17-17-15-15-17-17-13-13-15-15-12-12-13-13-| 
G |-15-15-18-18-17-17-18-18-15-15-17-17-13-13-15-15-| 
D#|-------------------------------------------------| play 2x 
A#|-------------------------------------------------| 
F |-------------------------------------------------| 
A#|-------------------------------------------------| 

C |-------------------------13-13-13-13-12-12-12-12-|-13p12--&--&--&--&--&--&--&--| 
G |-13-13-13-13-13-13-13-13-------------------------|-15p13--&--&--&--&--&--&--&--| 
D#|-------------------------------------------------|-----------------------------| 
A#|-------------------------------------------------|-----------------------------| 
F |-------------------------------------------------|-----------------------------| 
A#|-------------------------------------------------|-----------------------------| 

C |-13-13-17-17-15-15-17-17-13-13-15-15-12-12-13-13-| 
G |-15-15-18-18-17-17-18-18-15-15-17-17-13-13-15-15-| 
D#|-------------------------------------------------| play 2x 
A#|-------------------------------------------------| 
F |-------------------------------------------------| 
A#|-------------------------------------------------| 

C |------------------------17-17-17-17-16-16-16-16-|-20-20-20-20-19-19-19-19-20-20-19-19-17-17------| 
G |-18-18-18-18-17-17-17-17------------------------|-------------------------------------------20---| 
D#|------------------------------------------------|------------------------------------------------| 
A#|------------------------------------------------|------------------------------------------------| 
F |------------------------------------------------|------------------------------------------------| 
A#|------------------------------------------------|------------------------------------------------| 
    ** This part has harmony a full octave lower than these notes 



Outro 

C |------------------|----------------------|------------------|-------------------| 
G |------------------|----------------------|------------------|-------------------| 
D#|------------------|----------------------|------------------|-------------------| 
A#|------------------|----------------------|------------------|-------------------| 
F |-0----------------|-0--0--0--0--0--------|-3----------------|-3--3--3--3--3-----| 
A#|-0----------------|-0--0--0--0--0--------|-3----------------|-3--3--3--3--3-----| 

C |------------------|----------------------|------------------| 
G |------------------|----------------------|------------------| 
D#|------------------|----------------------|------------------| 
A#|------------------|----------------------|------------------| 
F |-5----------------|-8----------7---------|-0----------------| 
A#|-5----------------|-8----------7---------|-0----------------| 


************************************ 

| (n) Ghost note 
| h   Hammer-on 
| p   Pull-off 
| /   Slide up 
| \   Slide down 
| PM  Palm mute 

************************************ 
    	
fixar
fixar inscrever-se

enviado porenviado por: renejunior
cifra enviadaCorrigida por: sem correções
logo top cifrasComente
ico música do artistaMúsicas deste artista
ico curtiuCurtiu?
ico destaqueDestaque
Petaxxon Comunicação Online

Cifras.com.br - Melhor e mais completo site de cifras e tablaturas do Brasil Mais de 1 milhão de acordes de músicas cadastradas desde 2003
As informações contidas no nosso site são colaborações de seus usuários e podem conter erros, sendo assim, não nos responsabilizamos sobre nenhuma destas.

close
menos
mais
close
Cor dos acordes:

Cor da letra:

close
Alinhar acordes a direita Alinhar acordes a esquerda Alinhar acordes em baixo Alinhar acordes no topo
close
  Mostrar todos os acordes Esconder acordes muito fáceis Esconder acordes fáceis Esconder acordes intermediários
redimensionar
glossário