Cifras e Tablaturas
Primus

Primus

The Scheme

Cifras Cancelar Versão de Impressão
cifras

Primus - The Scheme

fixar na tela  
Exibindo: vídeo-aula ver clipes redimensionar

Tom:

  
Intro 
e|---------10-----------------------------| 
B|-----8-8--------------------------------|  
G|---7-----------7--7-5-7-7--7-5----------| 
D|--------------------5--------5----------|   x4   
A|---------------5--5-5-5-5--5-5----------|  
E|----------------------------------------| 

Verse 
e|---------10-----------------------------| 
B|-----8-8--------------------------------|  
G|---7-----------7--7-5-7-7--7-5----------| 
D|--------------------5--------5----------|   x2   
A|---------------5--5-5-5-5--5-5----------|  
E|----------------------------------------| 

e|---------10-----------------------------| 
B|-----8-8--------------------------------|  
G|---7-----------7--7-5-7-7--7-5----------| 
D|--------------------5--------5----------|   x2   
A|---------------5--5-5-5-5--5-5----------|  
E|----------------------------------------| 

e|-------10-------10-------10--------------| 
B|---8-8------8-8------8-8-----------------| 
G|-7--------7--------7---------------------| 
D|---------------------------------0-------| 
A|---------------------------------0-------| 
E|---------------------------------0-------| 

Chorus 
e|-----------------------------------------| 
B|-----------------------------------------| 
G|-----------------------------------------| 
D|--5----6----0----5----6----2----0----12--| 
A|--5----6----0----5----6----2----0----12--| 
E|--5----6----0----5----6----2----0----12--| 

Verse 
pm|-------|  
e|-----------| 
B|-----------| 
G|-----------| 
D|-----------|  x4 
A|-0-0-0-0---| 
E|-0-0-0-0---| 

pm|-------|  
e|-----------| 
B|-----------| 
G|-----------| 
D|-----------|  x2 
A|-0-0-0-0---| 
E|-0-0-0-0---| 

e|---------10-----------------------------| 
B|-----8-8--------------------------------|  
G|---7-----------7--7-5-7-7--7-5----------| 
D|--------------------5--------5----------| x2    
A|---------------5--5-5-5-5--5-5----------|  
E|----------------------------------------| 

pm|-------|  
e|-----------| 
B|-----------| 
G|-----------| 
D|-----------|  x2 
A|-0-0-0-0---| 
E|-0-0-0-0---| 

e|---------10-----------------------------| 
B|-----8-8--------------------------------|  
G|---7-----------7--7-5-7-7--7-5----------| 
D|--------------------5--------5----------| x2    
A|---------------5--5-5-5-5--5-5----------|  
E|----------------------------------------| 

e|-------10-------10-------10--------------| 
B|---8-8------8-8------8-8-----------------| 
G|-7--------7--------7---------------------| 
D|---------------------------------0-------| 
A|---------------------------------0-------| 
E|---------------------------------0-------| 

Chorus 
e|-----------------------------------------| 
B|-----------------------------------------| 
G|-----------------------------------------| 
D|--5----6----0----5----6----2----0----12--| 
A|--5----6----0----5----6----2----0----12--| 
E|--5----6----0----5----6----2----0----12--| 

e|-----------------------------------------| 
B|-----------------------------------------| 
G|--7-7-7-7--------7-7-7-7-----------------| 
D|-----------------------------------------| 
A|--5-5-5-5--------5-5-5-5-----------------| 
E|-----------------------------------------| 

Solo 
e|-------------------------------------------------------------------------------------21--| 
B|---------------------------------------------16-17----18----19--------------19-20-x------| 
G|------------------------------------17-16-15-------16----17----18--19-20-21--------------| 
D|--5--6--4--5--6--/16-16-17----17-16------------------------------------------------------| 
A|--5--6--4--5--6--------------------------------------------------------------------------| 
E|--5--6--4--5--6--------------------------------------------------------------------------| 

Verse 
pm|-------|  
e|-----------| 
B|-----------| 
G|-----------| 
D|-----------|  x4 
A|-0-0-0-0---| 
E|-0-0-0-0---| 

e|---------10-----------------------------| 
B|-----8-8--------------------------------|  
G|---7-----------7--7-5-7-7--7-5----------| 
D|--------------------5--------5----------| x2    
A|---------------5--5-5-5-5--5-5----------|  
E|----------------------------------------| 

pm|-------|  
e|-----------| 
B|-----------| 
G|-----------| 
D|-----------|  x2 
A|-0-0-0-0---| 
E|-0-0-0-0---| 

e|---------10-----------------------------| 
B|-----8-8--------------------------------|  
G|---7-----------7--7-5-7-7--7-5----------| 
D|--------------------5--------5----------| x2    
A|---------------5--5-5-5-5--5-5----------|  
E|----------------------------------------| 

e|-------10-------10-------10--------------| 
B|---8-8------8-8------8-8-----------------| 
G|-7--------7--------7---------------------| 
D|---------------------------------0-------| 
A|---------------------------------0-------| 
E|---------------------------------0-------| 

e|-----------------------------------------| 
B|-----------------------------------------| 
G|-----------------------------------------| 
D|--5----6----0----5----6----2----0----12--| 
A|--5----6----0----5----6----2----0----12--| 
E|--5----6----0----5----6----2----0----12--| 

pm|-------|  
e|-----------| 
B|-----------| 
G|-----------| 
D|-----------|  x4 
A|-0-0-0-0---| 
E|-0-0-0-0---| 


************************** 

|  pm|-----| - palm mute 
|  /         - slide up  

************************** 
  

top 5 | primus
top rock'n roll
Outras músicas do artista letras do(a) Primus
Top cifras »Top artistas »
Petaxxon Comunicação Online
Cifras.com.br - Melhor e mais completo site de cifras e tablaturas do Brasil
Mais de 1 milhão de acordes de músicas cadastradas desde 2003
As informações contidas no nosso site são colaborações de seus usuários e podem conter erros, sendo assim, não nos responsabilizamos sobre nenhuma destas.
close
menos
mais
close
Cor dos acordes:

Cor da letra:

 

save
close
close
 
redimensionar