Cifras e Tablaturas
Primus

Primus

The Seven

Cifras Cancelar Versão de Impressão
cifras

Primus - The Seven

fixar na tela  
Exibindo: vídeo-aula ver clipes redimensionar

Tom:

  
Intro 

Guitar Starts Around 0:12 

e|-------------------------------------------------------------------------------------------| 
B|-------------------------------------------------------------------------------------------| 
G|----------------------------------------------------------------(12)-(12)(12)(12)----------| 
D|-----------------12--11--9--8--------------------------8--9--11--12---12--12--12-11--12----| 
A|-------------------------------10--10-10-10-9--10--10--------------------------------------| 
E|---3-3-3-2--3/-----------------------------------------------------------------------------| 

Verse 

e|------------------------------------------------------------------------------| 
B|------------------------------------------------------------------------------| 
G|---------------------------------------------------(12)-(12)(12)(12)----------| 
D|----12--11--9--8--------------------------8--9--11--12---12--12--12-11--12----| 
A|------------------10--10-10-10-9--10--10--------------------------------------| 
E|------------------------------------------------------------------------------| 

e|---------------------------------------------------------| 
B|---------------------------------------------------------| 
G|---------------------------------------------------------| 
D|----12--11--9--8--------------------------8--9--11--9----| 
A|------------------10--10-10-10-9--10--10------------10---| 
E|---------------------------------------------------------| 

Chorus 

e|-------------------------------------------------------------------------------------| 
B|---10--10--10--12--12--12-12-------8---------8-------------8---------8---------8-----| 
G|-----------------------------------9---------9-------------9---------9---------9-----| 
D|---7---7---7---9---9---9--9---9------10-9----------------9-------9-9-------9-9-------| 
A|--------------------------------10--------10---10--10-10-----10---------10-----------| 
E|-------------------------------------------------------------------------------------| 

e|--------------------------------------------------------11---| 
B|--------------8--------------8--------------8----------------| 
G|--------------9--------------9--------------9--------12------| 
D|-------9----9---------9----9---------9----9------------------| 
A|---10----10-------10----10-------10----10-------10-----------| 
E|-------------------------------------------------------------| 

e|------------------------------------------------------------| 
B|---10--10--10--12--12--12-12-------8---------8--------------| 
G|-----------------------------------9---------9----------8---| 
D|---7---7---7---9---9---9--9---9------10-9-------------9-----| 
A|--------------------------------10--------10---10--10-------| 
E|------------------------------------------------------------| 

e|---------------------------------------------------------------| 
B|---10--10--10--12--12--12-12-------8---------8-----------------| 
G|-----------------------------------9---------9----------8~~~---| 
D|---7---7---7---9---9---9--9---9------10-9-------------9--------| 
A|--------------------------------10--------10---10--10----------| 
E|---------------------------------------------------------------| 

Verse 

Guitar Comes in at 1:12 

e|------------------------------------------------------------------------------| 
B|------------------------------------------------------------------------------| 
G|---------------------------------------------------(12)-(12)(12)(12)----------| 
D|----12--11--9--8--------------------------8--9--11--12---12--12--12-11--12----| 
A|------------------10--10-10-10-9--10--10--------------------------------------| 
E|------------------------------------------------------------------------------| 

e|------------------------------------------------------------------------------| 
B|------------------------------------------------------------------------------| 
G|---------------------------------------------------(12)-(12)(12)(12)----------| 
D|----12--11--9--8--------------------------8--9--11--12---12--12--12-11--12----| 
A|------------------10--10-10-10-9--10--10--------------------------------------| 
E|------------------------------------------------------------------------------| 

e|------------------------------------------------------------------------------| 
B|------------------------------------------------------------------------------| 
G|---------------------------------------------------(12)-(12)(12)(12)----------| 
D|----12--11--9--8--------------------------8--9--11--12---12--12--12-11--12----| 
A|------------------10--10-10-10-9--10--10--------------------------------------| 
E|------------------------------------------------------------------------------| 

e|------------------------------------------------------------| 
B|------------------------------------------------------------| 
G|------------------------------------------------------------| 
D|----12--11--9--8--------------------------8--9--11--9-~~~---| 
A|------------------10--10-10-10-9--10--10------------10~~~---| 
E|------------------------------------------------------------| 

Chorus 

e|-------------------------------------------------------------------------------------| 
B|---10--10--10--12--12--12-12-------8---------8-------------8---------8---------8-----| 
G|-----------------------------------9---------9-------------9---------9---------9-----| 
D|---7---7---7---9---9---9--9---9------10-9----------------9-------9-9-------9-9-------| 
A|--------------------------------10--------10---10--10-10-----10---------10-----------| 
E|-------------------------------------------------------------------------------------| 

e|--------------------------------------------------------11---| 
B|--------------8--------------8--------------8----------------| 
G|--------------9--------------9--------------9--------12------| 
D|-------9----9---------9----9---------9----9------------------| 
A|---10----10-------10----10-------10----10-------10-----------| 
E|-------------------------------------------------------------| 

e|------------------------------------------------------------| 
B|---10--10--10--12--12--12-12-------8---------8--------------| 
G|-----------------------------------9---------9----------8---| 
D|---7---7---7---9---9---9--9---9------10-9-------------9-----| 
A|--------------------------------10--------10---10--10-------| 
E|------------------------------------------------------------| 

e|---------------------------------------------------------------| 
B|---10--10--10--12--12--12-12-------8---------8-----------------| 
G|-----------------------------------9---------9----------8~~~---| 
D|---7---7---7---9---9---9--9---9------10-9-------------9--------| 
A|--------------------------------10--------10---10--10----------| 
E|---------------------------------------------------------------| 

Bridge 

e|-------------------------------------------------------------------------------------| 
B|-------------------------------------------------------------------------------------| 
G|-------8------8----------8----------8----------8----------8-----------8----------8---| 
D|---11-----11-----11---------11---------11---------11---------11----------11----------| 
A|--------------------(10)-------(10)-------(10)-------(10)--------(10)-------(10)-----| 
E|-------------------------------------------------------------------------------------| 

e|---------------------------------| 
B|-----------7-----7-----------7---| 
G|---7---9-----7-9---7-------7-----| 
D|-----8---8-----------8---8-------| 
A|-----------------------9---------| 
E|---------------------------------| 

e|---------------------------------| 
B|-----------7-----7-----------7---| 
G|---7---9-----7-9---7-------7-----| 
D|-----8---8-----------8---8-------| 
A|-----------------------9---------| 
E|---------------------------------| 

e|----------------------------------------| 
B|----------------------------------------| 
G|---------8--------8--------8--------8---| 
D|---11-------11-------11-------11--------| 
A|------10-------10-------10-------10-----| 
E|----------------------------------------| 

e|---------------------------------| 
B|-----------7-----7-----------7---| 
G|---7---9-----7-9---7-------7-----| 
D|-----8---8-----------8---8-------| 
A|-----------------------9---------| 
E|---------------------------------| 

e|---------------------------------| 
B|-----------7-----7-----------7---| 
G|---7---9-----7-9---7-------7-----| 
D|-----8---8-----------8---8-------| 
A|-----------------------9---------| 
E|---------------------------------| 

e|------------------------------------------| 
B|------------------------------------------| 
G|---6-8-6---6-8-10-8---10-8-6---6-8-10-8---| 
D|------------------------------------------| 
A|------------------------------------------| 
E|------------------------------------------| 

e|--------------10-------------------| 
B|---------11------11-----------11---| 
G|-------9----8-------9-------9------| 
D|-----8----------------8---8--------| 
A|-----------------------------------| 
E|---0-------------------------------| 

e|--------------10-------------------| 
B|---------11------11-----------11---| 
G|-------9----8-------9-------9------| 
D|-----8----------------8---8--------| 
A|-----------------------------------| 
E|---0-------------------------------| 

Outro 

e|-------------------------------------------------------------| 
B|-------------------------------------------------------------| 
G|-------------------------------------------------------------| 
D|-----5-------3-5---5-------3-5---5-------3-5---5-------3-5---| 
A|-------4---4---------4---4---------4---4---------4---4-------| 
E|---3-----3-------3-----3-------3-----3-------3-----3---------| 

e|-------------------------------------------------| 
B|-------------------------------------------------| 
G|-------------------------------------------------| 
D|-----7-------5-7---9-------7-9---5-------3-5-----| 
A|-------6---6---------8---8---------4---4---------| 
E|---5-----5-------7-----7-------3-----3-------3---| 


************************************ 

| (n) Ghost note 
| /   Slide up 
| ~   Vibrato 

************************************ 
  

top 5 | primus
top rock'n roll
Outras músicas do artista letras do(a) Primus
Top cifras »Top artistas »
Petaxxon Comunicação Online
Cifras.com.br - Melhor e mais completo site de cifras e tablaturas do Brasil
Mais de 1 milhão de acordes de músicas cadastradas desde 2003
As informações contidas no nosso site são colaborações de seus usuários e podem conter erros, sendo assim, não nos responsabilizamos sobre nenhuma destas.
close
menos
mais
close
Cor dos acordes:

Cor da letra:

 

save
close
close
 
redimensionar