Cifras e Tablaturas
Prong

Prong

Forced Into Tolerance

Cifras Cancelar Versão de Impressão
cifras

Prong - Forced Into Tolerance

fixar na tela  
Exibindo: vídeo-aula ver clipes redimensionar

Tom:

  
 170 BPM 

Intro 

d|--------------------------------| 
A|--------------------------------| 
F|--------------------------------| 
C|--------------------------------| 
G|--------------------------------| 
C|-------------------------11\----| 

   1 + + + 2 + + + 3 + + + 4 + + + 

       PM------|       PM------|        PM------| 
d|--------------------------------|--------------------------------| 
A|--------------------------------|--------------------------------| 
F|--------------------------------|--------------------------------| 
C|--------------------------------|--------------------------------| 
G|--------------------------------|--------------------------------| 
C|-3---0-0-0-0-0---6---0-0-0-0-0--|-3---0-0-0-0-0---1b*------------| 

   1 + + + 2 + + + 3 + + + 4 + + +  1 + + + 2 + + + 3 + + + 4 + + + 

       PM------|       PM------|        PM------| 
d|--------------------------------|--------------------------------| 
A|--------------------------------|--------------------------------| 
F|--------------------------------|-----------------6b*------------| 
C|-7---------------8--------------|-7---------------x--------------| 
G|-5---------------6--------------|-5---------------4b*------------| 
C|-----0-0-0-0-0-------0-0-0-0-0--|-----0-0-0-0-0------------------| 

   1 + + + 2 + + + 3 + + + 4 + + +  1 + + + 2 + + + 3 + + + 4 + + + 

       PM------|       PM------|        PM------| 
d|--------------------------------|--------------------------------| 
A|--------------------------------|--------------------------------| 
F|--------------------------------|--------------------------------| 
C|--------------------------------|--------------------------------| 
G|--------------------------------|--------------------------------| 
C|-3---0-0-0-0-0---6---0-0-0-0-0--|-3---0-0-0-0-0---1b*------------| 

   1 + + + 2 + + + 3 + + + 4 + + +  1 + + + 2 + + + 3 + + + 4 + + + 

       PM------|       PM------| 
d|--------------------------------|--------------------------------| 
A|--------------------------------|--------------------------------| 
F|--------------------------------|--------------------------------| 
C|-7---------------8--------------|-6-----------3---6---5---3---1--| 
G|-5---------------6--------------|-4-----------3---6---5---3---1--| 
C|-----0-0-0-0-0-------0-0-0-0-0--|-------------3---6---5---3---1--| 

   1 + + + 2 + + + 3 + + + 4 + + +  1 + + + 2 + + + 3 + + + 4 + + + 

verse 1 

       PM------|       PM------|        PM| 
d|--------------------------------|--------------------------------| 
A|--------------------------------|--------------------------------| 
F|--------------------------------|--------------------------------| 
C|--------------------------------|-----------------1--------------| 
G|--------------------------------|--------------------------------| 
C|-0---0-0-0-0-0---0---0-0-0-0-0--|-0---0-0-0---1-------0---1b*----| 

   1 + + + 2 + + + 3 + + + 4 + + +  1 + + + 2 + + + 3 + + + 4 + + + 

       PM------|       PM------|        PM| 
d|--------------------------------|--------------------------------| 
A|--------------------------------|--------------------------------| 
F|--------------------------------|--------------------------------| 
C|--------------------------------|---------5---6---7---7----------| 
G|--------------------------------|---------3---4---5---6----------| 
C|-0---0-0-0-0-0---0---0-0-0-0-0--|-0---0-0------------------------| 

   1 + + + 2 + + + 3 + + + 4 + + +  1 + + + 2 + + + 3 + + + 4 + + + 

       PM------|       PM------|        PM| 
d|--------------------------------|--------------------------------| 
A|--------------------------------|--------------------------------| 
F|--------------------------------|--------------------------------| 
C|--------------------------------|-----------------1--------------| 
G|--------------------------------|--------------------------------| 
C|-0---0-0-0-0-0---0---0-0-0-0-0--|-0---0-0-0---1-------0---1b*----| 

   1 + + + 2 + + + 3 + + + 4 + + +  1 + + + 2 + + + 3 + + + 4 + + + 

                                      triplet 
       PM------|       PM------|    /    |    \ 
d|--------------------------------|--------------------------------| 
A|--------------------------------|--------------------------------| 
F|--------------------------------|--------------------------------| 
C|--------------------------------|-3----5----6-----8---6----------| 
G|--------------------------------|-3----5----6-----6---4----------| 
C|-0---0-0-0-0-0---0---0-0-0-0-0--|-3----5----6--------------------| 
  
   1 + + + 2 + + + 3 + + + 4 + + +  1 + + + 2 + + + 3 + + + 4 + + + 

       PM------|       PM------|        PM| 
d|--------------------------------|--------------------------------| 
A|--------------------------------|--------------------------------| 
F|--------------------------------|--------------------------------| 
C|--------------------------------|-----------------1--------------| 
G|--------------------------------|--------------------------------| 
C|-0---0-0-0-0-0---0---0-0-0-0-0--|-0---0-0-0---1-------0---1b*----| 

   1 + + + 2 + + + 3 + + + 4 + + +  1 + + + 2 + + + 3 + + + 4 + + + 

       PM------|       PM------|        PM| 
d|--------------------------------|--------------------------------| 
A|--------------------------------|--------------------------------| 
F|--------------------------------|--------------------------------| 
C|--------------------------------|---------5---6---7---7----------| 
G|--------------------------------|---------3---4---5---6----------| 
C|-0---0-0-0-0-0---0---0-0-0-0-0--|-0---0-0------------------------| 

   1 + + + 2 + + + 3 + + + 4 + + +  1 + + + 2 + + + 3 + + + 4 + + + 

       PM------|       PM------|        PM| 
d|--------------------------------|--------------------------------| 
A|--------------------------------|--------------------------------| 
F|--------------------------------|--------------------------------| 
C|--------------------------------|-----------------1--------------| 
G|--------------------------------|--------------------------------| 
C|-0---0-0-0-0-0---0---0-0-0-0-0--|-0---0-0-0---1-------0---1b*----| 

   1 + + + 2 + + + 3 + + + 4 + + +  1 + + + 2 + + + 3 + + + 4 + + + 

                                      triplet 
       PM------|       PM------|    /    |    \ 
d|--------------------------------|--------------------------------| 
A|--------------------------------|--------------------------------| 
F|--------------------------------|--------------------------------| 
C|--------------------------------|-3----5----6-----8---6----------| 
G|--------------------------------|-3----5----6-----6---4----------| 
C|-0---0-0-0-0-0---0---0-0-0-0-0--|-3----5----6--------------------| 
   
   1 + + + 2 + + + 3 + + + 4 + + +  1 + + + 2 + + + 3 + + + 4 + + + 


pre Chorus 

d|--------------------------------|--------------------------------| 
A|--------------------------------|--------------------------------| 
F|-5---5---5---5---5---5---5---5--|--------------------------------| 
C|-5---5---5---5---5---5---5---5--|-1---1---1---1---1---1---1---1--| 
G|-3---3---3---3---3---3---3---3--|-1---1---1---1---1---1---1---1--| 
C|--------------------------------|-1---1---1---1---1---1---1---1--| 

   1 + + + 2 + + + 3 + + + 4 + + +  1 + + + 2 + + + 3 + + + 4 + + + 

d|--------------------------------|--------------------------------| 
A|--------------------------------|--------------------------------| 
F|-5---5---5---5---5---5---5---5--|--------------------------------| 
C|-5---5---5---5---5---5---5---5--|-1---1---1---1---1---1---1---1--| 
G|-3---3---3---3---3---3---3---3--|-1---1---1---1---1---1---1---1--| 
C|--------------------------------|-1---1---1---1---1---1---1---1--| 

   1 + + + 2 + + + 3 + + + 4 + + +  1 + + + 2 + + + 3 + + + 4 + + + 

d|--------------------------------|--------------------------------| 
A|--------------------------------|--------------------------------| 
F|-5---5---5---5---5---5---5---5--|--------------------------------| 
C|-5---5---5---5---5---5---5---5--|-1---1---1---1---1---1---1---1--| 
G|-3---3---3---3---3---3---3---3--|-1---1---1---1---1---1---1---1--| 
C|--------------------------------|-1---1---1---1---1---1---1---1--| 

   1 + + + 2 + + + 3 + + + 4 + + +  1 + + + 2 + + + 3 + + + 4 + + + 

d|--------------------------------|--------------------------------| 
A|--------------------------------|--------------------------------| 
F|--------------------------------|--------------------------------| 
C|-4-\-3---3---3---3---3---3---3--|-3---3---3---3---3--------------| 
G|-4-\-3---3---3---3---3---3---3--|-3---3---3---3---3--------------| 
C|-4-\-3---3---3---3---3---3---3--|-3---3---3---3---3---0---1b*----| 

   1 + + + 2 + + + 3 + + + 4 + + +  1 + + + 2 + + + 3 + + + 4 + + + 

Chorus 

       PM------|       PM------|        PM------| 
d|--------------------------------|--------------------------------| 
A|--------------------------------|--------------------------------| 
F|--------------------------------|--------------------------------| 
C|--------------------------------|--------------------------------| 
G|--------------------------------|--------------------------------| 
C|-3---0-0-0-0-0---6---0-0-0-0-0--|-3---0-0-0-0-0---1b*------------| 

   1 + + + 2 + + + 3 + + + 4 + + +  1 + + + 2 + + + 3 + + + 4 + + + 

       PM------|       PM------|        PM------| 
d|--------------------------------|--------------------------------| 
A|--------------------------------|--------------------------------| 
F|--------------------------------|-----------------6b*------------| 
C|-7---------------8--------------|-7---------------x--------------| 
G|-5---------------6--------------|-5---------------4b*------------| 
C|-----0-0-0-0-0-------0-0-0-0-0--|-----0-0-0-0-0------------------| 

   1 + + + 2 + + + 3 + + + 4 + + +  1 + + + 2 + + + 3 + + + 4 + + + 

       PM------|       PM------|        PM------| 
d|--------------------------------|--------------------------------| 
A|--------------------------------|--------------------------------| 
F|--------------------------------|--------------------------------| 
C|--------------------------------|--------------------------------| 
G|--------------------------------|--------------------------------| 
C|-3---0-0-0-0-0---6---0-0-0-0-0--|-3---0-0-0-0-0---1b*------------| 

   1 + + + 2 + + + 3 + + + 4 + + +  1 + + + 2 + + + 3 + + + 4 + + + 

       PM------|       PM------| 
d|--------------------------------|--------------------------------| 
A|--------------------------------|--------------------------------| 
F|--------------------------------|--------------------------------| 
C|-7---------------8--------------|-6-----------3---6---5---3---1--| 
G|-5---------------6--------------|-4-----------3---6---5---3---1--| 
C|-----0-0-0-0-0-------0-0-0-0-0--|-------------3---6---5---3---1--| 

   1 + + + 2 + + + 3 + + + 4 + + +  1 + + + 2 + + + 3 + + + 4 + + + 

verse 2 

       PM------|       PM------|        PM| 
d|--------------------------------|--------------------------------| 
A|--------------------------------|--------------------------------| 
F|--------------------------------|--------------------------------| 
C|--------------------------------|-----------------1--------------| 
G|--------------------------------|--------------------------------| 
C|-0---0-0-0-0-0---0---0-0-0-0-0--|-0---0-0-0---1-------0---1b*----| 

   1 + + + 2 + + + 3 + + + 4 + + +  1 + + + 2 + + + 3 + + + 4 + + + 

       PM------|       PM------|        PM| 
d|--------------------------------|--------------------------------| 
A|--------------------------------|--------------------------------| 
F|--------------------------------|--------------------------------| 
C|--------------------------------|---------5---6---7---7----------| 
G|--------------------------------|---------3---4---5---6----------| 
C|-0---0-0-0-0-0---0---0-0-0-0-0--|-0---0-0------------------------| 

   1 + + + 2 + + + 3 + + + 4 + + +  1 + + + 2 + + + 3 + + + 4 + + + 

       PM------|       PM------|        PM| 
d|--------------------------------|--------------------------------| 
A|--------------------------------|--------------------------------| 
F|--------------------------------|--------------------------------| 
C|--------------------------------|-----------------1--------------| 
G|--------------------------------|--------------------------------| 
C|-0---0-0-0-0-0---0---0-0-0-0-0--|-0---0-0-0---1-------0---1b*----| 

   1 + + + 2 + + + 3 + + + 4 + + +  1 + + + 2 + + + 3 + + + 4 + + + 

                                      triplet 
       PM------|       PM------|    /    |    \ 
d|--------------------------------|--------------------------------| 
A|--------------------------------|--------------------------------| 
F|--------------------------------|--------------------------------| 
C|--------------------------------|-3----5----6-----8---6----------| 
G|--------------------------------|-3----5----6-----6---4----------| 
C|-0---0-0-0-0-0---0---0-0-0-0-0--|-3----5----6--------------------| 
    
   1 + + + 2 + + + 3 + + + 4 + + +  1 + + + 2 + + + 3 + + + 4 + + + 

       PM------|       PM------|        PM| 
d|--------------------------------|--------------------------------| 
A|--------------------------------|--------------------------------| 
F|--------------------------------|--------------------------------| 
C|--------------------------------|-----------------1--------------| 
G|--------------------------------|--------------------------------| 
C|-0---0-0-0-0-0---0---0-0-0-0-0--|-0---0-0-0---1-------0---1b*----| 

   1 + + + 2 + + + 3 + + + 4 + + +  1 + + + 2 + + + 3 + + + 4 + + + 

       PM------|       PM------|        PM| 
d|--------------------------------|--------------------------------| 
A|--------------------------------|--------------------------------| 
F|--------------------------------|--------------------------------| 
C|--------------------------------|---------5---6---7---7----------| 
G|--------------------------------|---------3---4---5---6----------| 
C|-0---0-0-0-0-0---0---0-0-0-0-0--|-0---0-0------------------------| 

   1 + + + 2 + + + 3 + + + 4 + + +  1 + + + 2 + + + 3 + + + 4 + + + 

       PM------|       PM------|        PM| 
d|--------------------------------|--------------------------------| 
A|--------------------------------|--------------------------------| 
F|--------------------------------|--------------------------------| 
C|--------------------------------|-----------------1--------------| 
G|--------------------------------|--------------------------------| 
C|-0---0-0-0-0-0---0---0-0-0-0-0--|-0---0-0-0---1-------0---1b*----| 

   1 + + + 2 + + + 3 + + + 4 + + +  1 + + + 2 + + + 3 + + + 4 + + + 

                                      triplet 
       PM------|       PM------|    /    |    \ 
d|--------------------------------|--------------------------------| 
A|--------------------------------|--------------------------------| 
F|--------------------------------|--------------------------------| 
C|--------------------------------|-3----5----6-----8---6----------| 
G|--------------------------------|-3----5----6-----6---4----------| 
C|-0---0-0-0-0-0---0---0-0-0-0-0--|-3----5----6--------------------| 
   
   1 + + + 2 + + + 3 + + + 4 + + +  1 + + + 2 + + + 3 + + + 4 + + + 


pre Chorus 

d|--------------------------------|--------------------------------| 
A|--------------------------------|--------------------------------| 
F|-5---5---5---5---5---5---5---5--|--------------------------------| 
C|-5---5---5---5---5---5---5---5--|-1---1---1---1---1---1---1---1--| 
G|-3---3---3---3---3---3---3---3--|-1---1---1---1---1---1---1---1--| 
C|--------------------------------|-1---1---1---1---1---1---1---1--| 

   1 + + + 2 + + + 3 + + + 4 + + +  1 + + + 2 + + + 3 + + + 4 + + + 

d|--------------------------------|--------------------------------| 
A|--------------------------------|--------------------------------| 
F|-5---5---5---5---5---5---5---5--|--------------------------------| 
C|-5---5---5---5---5---5---5---5--|-1---1---1---1---1---1---1---1--| 
G|-3---3---3---3---3---3---3---3--|-1---1---1---1---1---1---1---1--| 
C|--------------------------------|-1---1---1---1---1---1---1---1--| 

   1 + + + 2 + + + 3 + + + 4 + + +  1 + + + 2 + + + 3 + + + 4 + + + 

d|--------------------------------|--------------------------------| 
A|--------------------------------|--------------------------------| 
F|-5---5---5---5---5---5---5---5--|--------------------------------| 
C|-5---5---5---5---5---5---5---5--|-1---1---1---1---1---1---1---1--| 
G|-3---3---3---3---3---3---3---3--|-1---1---1---1---1---1---1---1--| 
C|--------------------------------|-1---1---1---1---1---1---1---1--| 

   1 + + + 2 + + + 3 + + + 4 + + +  1 + + + 2 + + + 3 + + + 4 + + + 

                                                           ph 
d|--------------------------------|--------------------------------| 
A|--------------------------------|--------------------------------| 
F|--------------------------------|-------------------------6b*----| 
C|-4-\-3---3---3---3---3---3---3--|-3---3---3---3---3---3----------| 
G|-4-\-3---3---3---3---3---3---3--|-3---3---3---3---3---3----------| 
C|-4-\-3---3---3---3---3---3---3--|-3---3---3---3---3---3----------| 

   1 + + + 2 + + + 3 + + + 4 + + +  1 + + + 2 + + + 3 + + + 4 + + + 

Chorus 

       PM------|       PM------|        PM| 
d|--------------------------------|--------------------------------| 
A|--------------------------------|--------------------------------| 
F|--------------------------------|--------------------------------| 
C|--------------------------------|-----------------1--------------| 
G|--------------------------------|--------------------------------| 
C|-0---0-0-0-0-0---0---0-0-0-0-0--|-0---0-0-0---1-------0---1b*----| 

   1 + + + 2 + + + 3 + + + 4 + + +  1 + + + 2 + + + 3 + + + 4 + + + 

       PM------|       PM------|        PM| 
d|--------------------------------|--------------------------------| 
A|--------------------------------|--------------------------------| 
F|--------------------------------|--------------------------------| 
C|--------------------------------|---------5---6---7---7----------| 
G|--------------------------------|---------3---4---5---6----------| 
C|-0---0-0-0-0-0---0---0-0-0-0-0--|-0---0-0------------------------| 

   1 + + + 2 + + + 3 + + + 4 + + +  1 + + + 2 + + + 3 + + + 4 + + + 

       PM------|       PM------|        PM| 
d|--------------------------------|--------------------------------| 
A|--------------------------------|--------------------------------| 
F|--------------------------------|--------------------------------| 
C|--------------------------------|-----------------1--------------| 
G|--------------------------------|--------------------------------| 
C|-0---0-0-0-0-0---0---0-0-0-0-0--|-0---0-0-0---1-------0---1b*----| 

   1 + + + 2 + + + 3 + + + 4 + + +  1 + + + 2 + + + 3 + + + 4 + + + 

                                      triplet 
       PM------|       PM------|    /    |    \ 
d|--------------------------------|--------------------------------| 
A|--------------------------------|--------------------------------| 
F|--------------------------------|--------------------------------| 
C|--------------------------------|-3----5----6-----8---6----------| 
G|--------------------------------|-3----5----6-----6---4----------| 
C|-0---0-0-0-0-0---0---0-0-0-0-0--|-3----5----6--------------------| 
  
   1 + + + 2 + + + 3 + + + 4 + + +  1 + + + 2 + + + 3 + + + 4 + + + 

Break 

       PM------|       PM------|        PM------|       PM------| 
d|--------------------------------|--------------------------------| 
A|--------------------------------|--------------------------------| 
F|--------------------------------|--------------------------------| 
C|-3---------------3--------------|-3---------------3--------------| 
G|-3---0---0---0---3---0---0---0--|-3---0---0---0---3---0---0---0--| 
C|-3---0---0---0---3---0---0---0--|-3---0---0---0---3---0---0---0--| 

   1 + + + 2 + + + 3 + + + 4 + + +  1 + + + 2 + + + 3 + + + 4 + + + 


       PM------|       PM------|        PM 
d|--------------------------------|--------------------------------| 
A|--------------------------------|--------------------------------| 
F|--------------------------------|--------------------------------| 
C|-3---------------3--------------|-3-------5---6---7---7----------| 
G|-3---0---0---0---3---0---0---0--|-3---0---3---4---5---6----------| 
C|-3---0---0---0---3---0---0---0--|-3---0--------------------------| 

   1 + + + 2 + + + 3 + + + 4 + + +  1 + + + 2 + + + 3 + + + 4 + + + 


       PM------|       PM------|        PM------|       PM------| 
d|--------------------------------|--------------------------------| 
A|--------------------------------|--------------------------------| 
F|--------------------------------|--------------------------------| 
C|-0---------------0--------------|-0---------------0--------------| 
G|-0---0---0---0---0---0---0---0--|-0---0---0---0---0---0---0---0--| 
C|-0---0---0---0---0---0---0---0--|-0---0---0---0---0---0---0---0--| 

   1 + + + 2 + + + 3 + + + 4 + + +  1 + + + 2 + + + 3 + + + 4 + + + 

                                      triplet 
       PM------|       PM------|    /    |    \    PM 
d|--------------------------------|--------------------------------| 
A|--------------------------------|--------------------------------| 
F|--------------------------------|--------------------------------| 
C|-0---------------0--------------|-3---------6---------1----------| 
G|-0---0---0---0---0---0---0---0--|-3----5----6-----0---1----------| 
C|-0---0---0---0---0---0---0---0--|-3----5----6-----0---1----------| 

   1 + + + 2 + + + 3 + + + 4 + + +  1 + + + 2 + + + 3 + + + 4 + + + 
       PM------|       PM------|        PM------|       PM------| 
d|--------------------------------|--------------------------------| 
A|--------------------------------|--------------------------------| 
F|--------------------------------|--------------------------------| 
C|-0---------------0--------------|-0---------------0--------------| 
G|-0---0---0---0---0---0---0---0--|-0---0---0---0---0---0---0---0--| 
C|-0---0---0---0---0---0---0---0--|-0---0---0---0---0---0---0---0--| 

   1 + + + 2 + + + 3 + + + 4 + + +  1 + + + 2 + + + 3 + + + 4 + +  
       PM------|       PM------|        PM  
d|--------------------------------|--------------------------------| 
A|--------------------------------|--------------------------------| 
F|--------------------------------|--------------------------------| 
C|-0---------------0--------------|-0-------5---6---7---7----------| 
G|-0---0---0---0---0---0---0---0--|-0---0---3---4---5---6----------| 
C|-0---0---0---0---0---0---0---0--|-0---0--------------------------| 

   1 + + + 2 + + + 3 + + + 4 + + +  1 + + + 2 + + + 3 + + + 4 + + + 

       PM------|       PM------|        PM------|       PM------| 
d|--------------------------------|--------------------------------| 
A|--------------------------------|--------------------------------| 
F|--------------------------------|--------------------------------| 
C|-0---------------0--------------|-0---------------0--------------| 
G|-0---0---0---0---0---0---0---0--|-0---0---0---0---0---0---0---0--| 
C|-0---0---0---0---0---0---0---0--|-0---0---0---0---0---0---0---0--| 

   1 + + + 2 + + + 3 + + + 4 + + +  1 + + + 2 + + + 3 + + + 4 + + + 

                                      triplet 
       PM------|       PM------|    /    |    \    PM 
d|--------------------------------|--------------------------------| 
A|--------------------------------|--------------------------------| 
F|--------------------------------|--------------------------------| 
C|-0---------------0--------------|-3---------6---------1----------| 
G|-0---0---0---0---0---0---0---0--|-3----5----6-----0---1----------| 
C|-0---0---0---0---0---0---0---0--|-3----5----6-----0---1----------| 

   1 + + + 2 + + + 3 + + + 4 + + +  1 + + + 2 + + + 3 + + + 4 + + + 

       PM------|       PM------|        PM------|       PM------| 
d|--------------------------------|--------------------------------| 
A|--------------------------------|--------------------------------| 
F|--------------------------------|--------------------------------| 
C|-0---------------0--------------|-0---------------0--------------| 
G|-0---0---0---0---0---0---0---0--|-0---0---0---0---0---0---0---0--| 
C|-0---0---0---0---0---0---0---0--|-0---0---0---0---0---0---0---0--| 

   1 + + + 2 + + + 3 + + + 4 + + +  1 + + + 2 + + + 3 + + + 4 + + + 

                                      triplet 
       PM------|       PM------|    /    |    \    PM 
d|--------------------------------|--------------------------------| 
A|--------------------------------|--------------------------------| 
F|--------------------------------|--------------------------------| 
C|-0---------------0--------------|-3---------6---------1----------| 
G|-0---0---0---0---0---0---0---0--|-3----5----6-----0---1----------| 
C|-0---0---0---0---0---0---0---0--|-3----5----6-----0---1----------| 

   1 + + + 2 + + + 3 + + + 4 + + +  1 + + + 2 + + + 3 + + + 4 + + + 

Solo 
       PM------|       PM------|        PM------| 
d|--------------------------------|--------------------------------| 
A|--------------------------------|--------------------------------| 
F|--------------------------------|--------------------------------| 
C|--------------------------------|--------------------------------| 
G|--------------------------------|--------------------------------| 
C|-3---0-0-0-0-0---6---0-0-0-0-0--|-3---0-0-0-0-0---1b*------------| 
 |                                                                 | 
d|--------------------------------|--------------------------------| 
A|--------------------------------|-----------------20//////18/////| 
F|--------------------------------|---------17//////---------------| 
C|-------------------------17/////|-19//////-----------------------| 
G|-17//////19//////20//////-------|--------------------------------| 
C|--------------------------------|--------------------------------| 

   1 + + + 2 + + + 3 + + + 4 + + +  1 + + + 2 + + + 3 + + + 4 + + + 

       PM------|       PM------|        PM------| 
d|--------------------------------|--------------------------------| 
A|--------------------------------|--------------------------------| 
F|--------------------------------|-----------------6b*------------| 
C|-7---------------8--------------|-7---------------x--------------| 
G|-5---------------6--------------|-5---------------4b*------------| 
C|-----0-0-0-0-0-------0-0-0-0-0--|-----0-0-0-0-0------------------| 
 |                                                                 | 
d|-20b~------------------------20b|r20--------------N--------------| 
A|--------------------------------|--------------------------------| 
F|--------------------------------|--------------------------------| 
C|--------------------------------|--------------------------------| 
G|--------------------------------|--------------------------------| 
C|--------------------------------|--------------------------------| 

   1 + + + 2 + + + 3 + + + 4 + + +  1 + + + 2 + + + 3 + + + 4 + + + 

         PM----------|           PM----------|            PM----------| 
d|------------------------------------------------|-----------------------------------------------| 
A|------------------------------------------------|-----------------------------------------------| 
F|------------------------------------------------|-----------------------------------------------| 
C|------------------------------------------------|-----------------------------------------------| 
G|------------------------------------------------|-----------------------------------------------| 
C|-3-----0--0--0--0--0-----6-----0--0--0--0--0----|-3-----0--0--0--0--0-----1b*-------------------| 
 | left hand tapping                                                                              | 
d|------------------------------------------------|-----------------------------------------------| 
A|-18p15h18p15h17p14h17p14h16p13h16p13h15p12h15p12|-15--h18p15-18b--------------------------------| 
F|------------------------------------------------|-----------------------------------------------| 
C|------------------------------------------------|-----------------------------------------------| 
G|------------------------------------------------|-----------------------------------------------| 
C|------------------------------------------------|-----------------------------------------------| 

   1  +  +  +  2  +  +  +  3  +  +  +  4  +  +  +  1  +  +  +  2  +  +  +  3  +  +  +  4  +  +  +  

       PM------|       PM------|        PM------| 
d|--------------------------------|--------------------------------| 
A|--------------------------------|--------------------------------| 
F|--------------------------------|--------------------------------| 
C|-7---------------8--------------|-6-----------3---6---5---3---1--| 
G|-5---------------6--------------|-4-----------3---6---5---3---1--| 
C|-----0-0-0-0-0-------0-0-0-0-0--|-------------3---6---5---3---1--| 
 | t (16th triplets)                                               | 
d|-22p20p17--- repeat 8x ---------|-20b----------------------------| 
A|--------------------------------|--------------------------------| 
F|--------------------------------|--------------------------------| 
C|--------------------------------|--------------------------------| 
G|--------------------------------|--------------------------------| 
C|--------------------------------|--------------------------------| 

   1 + + + 2 + + + 3 + + + 4 + + +  1 + + + 2 + + + 3 + + + 4 + + + 

verse 3 

       PM------|       PM------|        PM| 
d|--------------------------------|--------------------------------| 
A|--------------------------------|--------------------------------| 
F|--------------------------------|--------------------------------| 
C|--------------------------------|-----------------1--------------| 
G|--------------------------------|--------------------------------| 
C|-0---0-0-0-0-0---0---0-0-0-0-0--|-0---0-0-0---1-------0---1b*----| 

   1 + + + 2 + + + 3 + + + 4 + + +  1 + + + 2 + + + 3 + + + 4 + + + 

       PM------|       PM------|        PM| 
d|--------------------------------|--------------------------------| 
A|--------------------------------|--------------------------------| 
F|--------------------------------|--------------------------------| 
C|--------------------------------|---------5---6---7---7----------| 
G|--------------------------------|---------3---4---5---6----------| 
C|-0---0-0-0-0-0---0---0-0-0-0-0--|-0---0-0------------------------| 

   1 + + + 2 + + + 3 + + + 4 + + +  1 + + + 2 + + + 3 + + + 4 + + + 

       PM------|       PM------|        PM| 
d|--------------------------------|--------------------------------| 
A|--------------------------------|--------------------------------| 
F|--------------------------------|--------------------------------| 
C|--------------------------------|-----------------1--------------| 
G|--------------------------------|--------------------------------| 
C|-0---0-0-0-0-0---0---0-0-0-0-0--|-0---0-0-0---1-------0---1b*----| 

   1 + + + 2 + + + 3 + + + 4 + + +  1 + + + 2 + + + 3 + + + 4 + + + 

                                      triplet 
       PM------|       PM------|    /    |    \ 
d|--------------------------------|--------------------------------| 
A|--------------------------------|--------------------------------| 
F|--------------------------------|--------------------------------| 
C|--------------------------------|-3----5----6-----8---6----------| 
G|--------------------------------|-3----5----6-----6---4----------| 
C|-0---0-0-0-0-0---0---0-0-0-0-0--|-3----5----6--------------------| 
   
   1 + + + 2 + + + 3 + + + 4 + + +  1 + + + 2 + + + 3 + + + 4 + + + 

pre Chorus 

d|--------------------------------|--------------------------------| 
A|--------------------------------|--------------------------------| 
F|-5---5---5---5---5---5---5---5--|--------------------------------| 
C|-5---5---5---5---5---5---5---5--|-1---1---1---1---1---1---1---1--| 
G|-3---3---3---3---3---3---3---3--|-1---1---1---1---1---1---1---1--| 
C|--------------------------------|-1---1---1---1---1---1---1---1--| 

   1 + + + 2 + + + 3 + + + 4 + + +  1 + + + 2 + + + 3 + + + 4 + + + 

d|--------------------------------|--------------------------------| 
A|--------------------------------|--------------------------------| 
F|-5---5---5---5---5---5---5---5--|--------------------------------| 
C|-5---5---5---5---5---5---5---5--|-1---1---1---1---1---1---1---1--| 
G|-3---3---3---3---3---3---3---3--|-1---1---1---1---1---1---1---1--| 
C|--------------------------------|-1---1---1---1---1---1---1---1--| 

   1 + + + 2 + + + 3 + + + 4 + + +  1 + + + 2 + + + 3 + + + 4 + + + 

d|--------------------------------|--------------------------------| 
A|--------------------------------|--------------------------------| 
F|-5---5---5---5---5---5---5---5--|--------------------------------| 
C|-5---5---5---5---5---5---5---5--|-1---1---1---1---1---1---1---1--| 
G|-3---3---3---3---3---3---3---3--|-1---1---1---1---1---1---1---1--| 
C|--------------------------------|-1---1---1---1---1---1---1---1--| 

   1 + + + 2 + + + 3 + + + 4 + + +  1 + + + 2 + + + 3 + + + 4 + + + 

                                                           ph 
d|--------------------------------|--------------------------------| 
A|--------------------------------|--------------------------------| 
F|--------------------------------|-------------------------6b*----| 
C|-4-\-3---3---3---3---3---3---3--|-3---3---3---3---3---3----------| 
G|-4-\-3---3---3---3---3---3---3--|-3---3---3---3---3---3----------| 
C|-4-\-3---3---3---3---3---3---3--|-3---3---3---3---3---3----------| 

   1 + + + 2 + + + 3 + + + 4 + + +  1 + + + 2 + + + 3 + + + 4 + + + 

Chorus 

       PM------|       PM------|        PM| 
d|--------------------------------|--------------------------------| 
A|--------------------------------|--------------------------------| 
F|--------------------------------|--------------------------------| 
C|--------------------------------|-----------------1--------------| 
G|--------------------------------|--------------------------------| 
C|-0---0-0-0-0-0---0---0-0-0-0-0--|-0---0-0-0---1-------0---1b*----| 

   1 + + + 2 + + + 3 + + + 4 + + +  1 + + + 2 + + + 3 + + + 4 + + + 

       PM------|       PM------|        PM| 
d|--------------------------------|--------------------------------| 
A|--------------------------------|--------------------------------| 
F|--------------------------------|--------------------------------| 
C|--------------------------------|---------5---6---7---7----------| 
G|--------------------------------|---------3---4---5---6----------| 
C|-0---0-0-0-0-0---0---0-0-0-0-0--|-0---0-0------------------------| 

   1 + + + 2 + + + 3 + + + 4 + + +  1 + + + 2 + + + 3 + + + 4 + + + 

       PM------|       PM------|        PM| 
d|--------------------------------|--------------------------------| 
A|--------------------------------|--------------------------------| 
F|--------------------------------|--------------------------------| 
C|--------------------------------|-----------------1--------------| 
G|--------------------------------|--------------------------------| 
C|-0---0-0-0-0-0---0---0-0-0-0-0--|-0---0-0-0---1-------0---1b*----| 

   1 + + + 2 + + + 3 + + + 4 + + +  1 + + + 2 + + + 3 + + + 4 + + + 

                                      triplet 
       PM------|       PM------|    /    |    \ 
d|--------------------------------|--------------------------------| 
A|--------------------------------|--------------------------------| 
F|--------------------------------|--------------------------------| 
C|--------------------------------|-3----5----6-----8---6----------| 
G|--------------------------------|-3----5----6-----6---4----------| 
C|-0---0-0-0-0-0---0---0-0-0-0-0--|-3----5----6--------------------| 
  
   1 + + + 2 + + + 3 + + + 4 + + +  1 + + + 2 + + + 3 + + + 4 + + + 

       PM------|       PM------|        PM| 
d|--------------------------------|--------------------------------| 
A|--------------------------------|--------------------------------| 
F|--------------------------------|--------------------------------| 
C|--------------------------------|-----------------1--------------| 
G|--------------------------------|--------------------------------| 
C|-0---0-0-0-0-0---0---0-0-0-0-0--|-0---0-0-0---1-------0---1b*----| 

   1 + + + 2 + + + 3 + + + 4 + + +  1 + + + 2 + + + 3 + + + 4 + + + 

       PM------|       PM------|        PM| 
d|--------------------------------|--------------------------------| 
A|--------------------------------|--------------------------------| 
F|--------------------------------|--------------------------------| 
C|--------------------------------|---------5---6---7---7----------| 
G|--------------------------------|---------3---4---5---6----------| 
C|-0---0-0-0-0-0---0---0-0-0-0-0--|-0---0-0------------------------| 

   1 + + + 2 + + + 3 + + + 4 + + +  1 + + + 2 + + + 3 + + + 4 + + + 

       PM------|       PM------|        PM| 
d|--------------------------------|--------------------------------| 
A|--------------------------------|--------------------------------| 
F|--------------------------------|--------------------------------| 
C|--------------------------------|-----------------1--------------| 
G|--------------------------------|--------------------------------| 
C|-0---0-0-0-0-0---0---0-0-0-0-0--|-0---0-0-0---1-------0---1b*----| 

   1 + + + 2 + + + 3 + + + 4 + + +  1 + + + 2 + + + 3 + + + 4 + + + 

                                      triplet 
       PM------|       PM------|    /    |    \ 
d|--------------------------------|--------------------------------| 
A|--------------------------------|--------------------------------| 
F|--------------------------------|--------------------------------| 
C|--------------------------------|-3----5----6-----8---6----------| 
G|--------------------------------|-3----5----6-----6---4----------| 
C|-0---0-0-0-0-0---0---0-0-0-0-0--|-3----5----6--------------------| 
  
   1 + + + 2 + + + 3 + + + 4 + + +  1 + + + 2 + + + 3 + + + 4 + + + 

outro 

     triplet                          triplet 
   /    |    \                      /    |    \ 
d|--------------------------------|--------------------------------|----| 
A|--------------------------------|--------------------------------|----| 
F|--------------------------------|--------------------------------|----| 
C|-3----5----6-----8---6----------|-3----5----6-----8---6----------|-L--| 
G|-3----5----6-----6---4----------|-3----5----6-----6---4----------|-L--| 
C|-3----5----6--------------------|-3----5----6--------------------|----| 
  
   1 + + + 2 + + + 3 + + + 4 + + +  1 + + + 2 + + + 3 + + + 4 + + + 

   PM|     PM|     PM|     PM|      PM| 
d|--------------------------------|--------------------------------| 
A|--------------------------------|--------------------------------| 
F|--------------------------------|--------------------------------| 
C|--------------------------------|---------------------0----------| 
G|-0-0-----0-0-----0-0-----0-0----|-0-0-----------------0----------| 
C|-0-0-----0-0-----0-0-----0-0----|-0-0-----------------0----------| 

   1 + + + 2 + + + 3 + + + 4 + + +  1 + + + 2 + + + 3 + + + 4 + + + 




************************************ 

| x   Dead note 
| h   Hammer-on 
| p   Pull-off 
| r   Release (full step) 
| t   Tapping 
| b   Bend (full step) 
| br  Bend release (full step) 
| b*  Slight bend (appr. 1/4 step) 
| \   Slide down 
| ~   Vibrato 
| PM  Palm mute 
| //  Tremolo picking 16th 
| N   Tremolo 
| ph  Pitch harmonic 

************************************ 
  

top 5 | prong
top rock'n roll
Outras músicas do artista letras do(a) Prong
Top cifras »Top artistas »
Petaxxon Comunicação Online
Cifras.com.br - Melhor e mais completo site de cifras e tablaturas do Brasil
Mais de 1 milhão de acordes de músicas cadastradas desde 2003
As informações contidas no nosso site são colaborações de seus usuários e podem conter erros, sendo assim, não nos responsabilizamos sobre nenhuma destas.
close
menos
mais
close
Cor dos acordes:

Cor da letra:

 

save
close
close
 
redimensionar