Cifras e Tablaturas
Prong

Prong

Looking For Them

Cifras Cancelar Versão de Impressão
cifras

Prong - Looking For Them

fixar na tela  
Exibindo: vídeo-aula ver clipes redimensionar

Tom:

  
Intro w/ phaser 


d|---------------------------------|-----------------------------------| 00:00 
A|---------------------------------|-----------------------------------| 
F|--5-------7-------8-------7---5--|--L---7---L---11--11---------------| 
C|--0-------0-------0-------0---0--|--L---0---L---0---0----------------| 
G|---------------------------------|-----------------------------------| 
C|---------------------------------|-----------------------------------| 

    1 + + + 2 + + + 3 + + + 4 + + +   1 + + + 2 + + + 3 + + + 4 + + + 

d|---------------------------------|-----------------------------------| 
A|---------------------------------|-----------------------------------| 
F|--5-------7-------8-------7---5--|--L--------------------------------| 
C|--0-------0-------0-------0---6--|--L--------------------------------| 
G|---------------------------------|-----------------------------------| 
C|---------------------------------|-----------------------------------| 
                                      hold for one bar 

    1 + + + 2 + + + 3 + + + 4 + + +   1 + + + 2 + + + 3 + + + 4 + + + 



d|---------------------------------|-----------------------------------| 
A|---------------------------------|-----------------------------------| 
F|--5-------7-------8-------7---5--|--L---7---L---11--11---------------| 
C|--0-------0-------0-------0---0--|--L---0---L---0---0----------------| 
G|---------------------------------|-----------------------------------| 
C|---------------------------------|-----------------------------------| 

    1 + + + 2 + + + 3 + + + 4 + + +   1 + + + 2 + + + 3 + + + 4 + + + 

d|---------------------------------|-----------------------------------| 
A|------------------------------6--|--L--------------------------------| 
F|--5-------7-------8-------7---5--|--L--------------------------------| 
C|--0-------0-------0-------0---6--|--L--------------------------------| 
G|---------------------------------|-----------------------------------| 
C|---------------------------------|-----------------------------------| 
                                      hold for two bars 

    1 + + + 2 + + + 3 + + + 4 + + +   1 + + + 2 + + + 3 + + + 4 + + + 

d|---------------------------------|-----------------------------------| 00:12 
A|---------------------------------|-----------------------------------| 
F|------------------8---8---8------|--------------11--11--11--11-------| 
C|------------------x---x---x------|--------------x---x---x---x--------| 
G|--0-------0-------6---6---6---0--|------0-------9---9---9---9---0----| 
C|--0-------0-------------------0--|------0-----------------------0----| 

    1 + + + 2 + + + 3 + + + 4 + + +   1 + + + 2 + + + 3 + + + 4 + + + 

d|---------------------------------|-----------------------------------| 
A|---------------------------------|-----------------------------------| 
F|------------------8---8----------|-----------------------------------| 
C|------------------x---x----------|-----------------------------------| 
G|--0-------0-------6---6---0---6--|--L---6---6---5---L---5---5---0----| 
C|--0-------0---------------0---6--|--L---6---6---5---L---5---5---0----| 

    1 + + + 2 + + + 3 + + + 4 + + +   1 + + + 2 + + + 3 + + + 4 + + + 

d|---------------------------------|-----------------------------------| 
A|---------------------------------|-----------------------------------| 
F|------------------8---8---8------|--------------11--11--11--11-------| 
C|------------------x---x---x------|--------------x---x---x---x--------| 
G|--0-------0-------6---6---6---0--|------0-------9---9---9---9---0----| 
C|--0-------0-------------------0--|------0-----------------------0----| 

    1 + + + 2 + + + 3 + + + 4 + + +   1 + + + 2 + + + 3 + + + 4 + + + 

d|---------------------------------|-----------------------------------| 
A|---------------------------------|-----------------------------------| 
F|------------------8---8----------|-----------------------------------| 
C|------------------x---x----------|-----------------------------------| 
G|--0-------0-------6---6---0---6--|--L---6---6---5---L---5------------| 
C|--0-------0---------------0---6--|--L---6---6---5---L---5---5-/-\----| 
                                                               
    1 + + + 2 + + + 3 + + + 4 + + +   1 + + + 2 + + + 3 + + + 4 + + + 


verse 1 

   Better keep looking behind your back... 

d|---------------------------------|----------------------------------| 00:23 
A|---------------------------------|----------------------------------| 
F|---------------------------------|----------------------------------| 
C|---------------------------------|----------------------------------| 
G|---------------------------------|------6-----------5-------3-h-5---| 
C|--0---0---0---0---0---0---0---0--|--0-------0---0-------0-----------| 
    |..................................|      |....|     |.| 

    1 + + + 2 + + + 3 + + + 4 + + +   1 + + + 2 + + + 3 + + + 4 + + + 

d|---------------------------------|----------------------------------| 
A|---------------------------------|----------------------------------| 
F|---------------------------------|----------------------------------| 
C|---------------------------------|----------------------------------| 
G|---------------------------------|----------------------------------| 
C|--0---0---0---0---0---0---0---0--|--0---6---0---0---5---0---3-h-5---| 
    |..................................|      |....|     |.| 

    1 + + + 2 + + + 3 + + + 4 + + +   1 + + + 2 + + + 3 + + + 4 + + + 

d|---------------------------------|----------------------------------| 
A|---------------------------------|----------------------------------| 
F|---------------------------------|----------------------------------| 
C|---------------------------------|----------------------------------| 
G|---------------------------------|------6-----------5-------3-h-5---| 
C|--0---0---0---0---0---0---0---0--|--0-------0---0-------0-----------| 
    |..................................|      |....|     |.| 

    1 + + + 2 + + + 3 + + + 4 + + +   1 + + + 2 + + + 3 + + + 4 + + + 

d|---------------------------------|----------------------------------| 
A|---------------------------------|----------------------------------| 
F|---------------------------------|----------------------------------| 
C|---------------------------------|----------------------------------| 
G|---------------------------------|--1---0---1---3---4---3---1---0---| 
C|--0---0---0---0---0---0---0---0--|--1---0---1---3---4---3---1---0---| 
    |............................| 

    1 + + + 2 + + + 3 + + + 4 + + +   1 + + + 2 + + + 3 + + + 4 + + + 


d|---------------------------------|----------------------------------| 
A|---------------------------------|----------------------------------| 
F|---------------------------------|----------------------------------| 
C|---------------------------------|----------------------------------| 
G|---------------------------------|------6-----------5-------3-h-5---| 
C|--0---0---0---0---0---0---0---0--|--0-------0---0-------0-----------| 
    |..................................|      |....|     |.| 

    1 + + + 2 + + + 3 + + + 4 + + +   1 + + + 2 + + + 3 + + + 4 + + + 

d|---------------------------------|----------------------------------| 
A|---------------------------------|----------------------------------| 
F|---------------------------------|----------------------------------| 
C|---------------------------------|----------------------------------| 
G|---------------------------------|----------------------------------| 
C|--0---0---0---0---0---0---0---0--|--0---6---0---0---5---0---3-h-5---| 
    |..................................|      |....|     |.| 

    1 + + + 2 + + + 3 + + + 4 + + +   1 + + + 2 + + + 3 + + + 4 + + + 

d|---------------------------------|----------------------------------| 
A|---------------------------------|----------------------------------| 
F|---------------------------------|----------------------------------| 
C|---------------------------------|----------------------------------| 
G|---------------------------------|------6-----------5-------3-h-5---| 
C|--0---0---0---0---0---0---0---0--|--0-------0---0-------0-----------| 
    |..................................|      |....|     |.| 

    1 + + + 2 + + + 3 + + + 4 + + +   1 + + + 2 + + + 3 + + + 4 + + + 

d|---------------------------------|----------------------------------| 
A|---------------------------------|----------------------------------| 
F|---------------------------------|----------------------------------| 
C|---------------------------------|----------------------------------| 
G|---------------------------------|--1---0---1---3---4---3---1---0---| 
C|--0---0---0---0---0---0---0---0--|--1---0---1---3---4---3---1---0---| 
    |............................| 

    1 + + + 2 + + + 3 + + + 4 + + +   1 + + + 2 + + + 3 + + + 4 + + + 


Chorus 1 

   We will find them... 

d|---------------------------------|----------------------------------| 00:45 
A|---------------------------------|----------------------------------| 
F|---------------------------------|----------------------------------| 
C|---------------------------------|----------------------------------| 
G|----------10------8-------7------|--8-------7-p-0-------7-----------| 
C|--7---7-------7-------7-------7--|------7-----------10------10\-----| 
    |...|      |.|     |.|     |.|       |.| 

    1 + + + 2 + + + 3 + + + 4 + + +   1 + + + 2 + + + 3 + + + 4 + + + 

d|---------------------------------|----------------------------------| 
A|---------------------------------|----------------------------------| 
F|---------------------------------|----------------------------------| 
C|---------------------------------|--5---5---L-----------------------| 
G|----------5-------3-------2------|--3---3---L---5---L---5---5---5---| 
C|--3---3-------3-------3-------3--|--------------5---L---5---5---5---| 
    |...|      |.|     |.|     |.|     

    1 + + + 2 + + + 3 + + + 4 + + +   1 + + + 2 + + + 3 + + + 4 + + + 

d|---------------------------------|---------------------------------| 
A|---------------------------------|---------------------------------| 
F|---------------------------------|---------------------------------| 
C|----------5-------3-------2------|----------5-------3-------2------| 
G|--0---0-------0-------0-------0--|--2---2-------2-------2-------2--| 
C|---------------------------------|---------------------------------| 
    |...|      |.|     |.|     |.|    |...|      |.|     |.|     |.| 

    1 + + + 2 + + + 3 + + + 4 + + +   1 + + + 2 + + + 3 + + + 4 + + + 

d|---------------------------------|---------------------------------| 
A|---------------------------------|---------------------------------| 
F|---------------------------------|---------------------------------| 
C|----------5-------3-------2------|---------------------------------| 
G|--3---3-------3-------3-------3--|--3-------L-----/-12------L------| 
C|---------------------------------|--3-------L-----/-12------L------| 
    |...|      |.|     |.|     |.|     

    1 + + + 2 + + + 3 + + + 4 + + +   1 + + + 2 + + + 3 + + + 4 + + + 


verse 2 

   Writing and naming in the black book... 

d|---------------------------------|----------------------------------| 00:55 
A|---------------------------------|----------------------------------| 
F|---------------------------------|----------------------------------| 
C|---------------------------------|----------------------------------| 
G|---------------------------------|------6-----------5-------3-h-5---| 
C|--0---0---0---0---0---0---0---0--|--0-------0---0-------0-----------| 
    |..................................|      |....|     |.| 

    1 + + + 2 + + + 3 + + + 4 + + +   1 + + + 2 + + + 3 + + + 4 + + + 

d|---------------------------------|----------------------------------| 
A|---------------------------------|----------------------------------| 
F|---------------------------------|----------------------------------| 
C|---------------------------------|----------------------------------| 
G|---------------------------------|----------------------------------| 
C|--0---0---0---0---0---0---0---0--|--0---6---0---0---5---0---3-h-5---| 
    |..................................|      |....|     |.| 

    1 + + + 2 + + + 3 + + + 4 + + +   1 + + + 2 + + + 3 + + + 4 + + + 

d|---------------------------------|----------------------------------| 
A|---------------------------------|----------------------------------| 
F|---------------------------------|----------------------------------| 
C|---------------------------------|----------------------------------| 
G|---------------------------------|------6-----------5-------3-h-5---| 
C|--0---0---0---0---0---0---0---0--|--0-------0---0-------0-----------| 
    |..................................|      |....|     |.| 

    1 + + + 2 + + + 3 + + + 4 + + +   1 + + + 2 + + + 3 + + + 4 + + + 

d|---------------------------------|----------------------------------| 
A|---------------------------------|----------------------------------| 
F|---------------------------------|----------------------------------| 
C|---------------------------------|----------------------------------| 
G|---------------------------------|--1---0---1---3---4---3---1---0---| 
C|--0---0---0---0---0---0---0---0--|--1---0---1---3---4---3---1---0---| 
    |............................| 

    1 + + + 2 + + + 3 + + + 4 + + +   1 + + + 2 + + + 3 + + + 4 + + + 


d|---------------------------------|----------------------------------| 
A|---------------------------------|----------------------------------| 
F|---------------------------------|----------------------------------| 
C|---------------------------------|----------------------------------| 
G|---------------------------------|------6-----------5-------3-h-5---| 
C|--0---0---0---0---0---0---0---0--|--0-------0---0-------0-----------| 
    |..................................|      |....|     |.| 

    1 + + + 2 + + + 3 + + + 4 + + +   1 + + + 2 + + + 3 + + + 4 + + + 

d|---------------------------------|----------------------------------| 
A|---------------------------------|----------------------------------| 
F|---------------------------------|----------------------------------| 
C|---------------------------------|----------------------------------| 
G|---------------------------------|----------------------------------| 
C|--0---0---0---0---0---0---0---0--|--0---6---0---0---5---0---3-h-5---| 
    |..................................|      |....|     |.| 

    1 + + + 2 + + + 3 + + + 4 + + +   1 + + + 2 + + + 3 + + + 4 + + + 

d|---------------------------------|----------------------------------| 
A|---------------------------------|----------------------------------| 
F|---------------------------------|----------------------------------| 
C|---------------------------------|----------------------------------| 
G|---------------------------------|------6-----------5-------3-h-5---| 
C|--0---0---0---0---0---0---0---0--|--0-------0---0-------0-----------| 
    |..................................|      |....|     |.| 

    1 + + + 2 + + + 3 + + + 4 + + +   1 + + + 2 + + + 3 + + + 4 + + + 

d|---------------------------------|----------------------------------| 
A|---------------------------------|----------------------------------| 
F|---------------------------------|----------------------------------| 
C|---------------------------------|----------------------------------| 
G|---------------------------------|--1---0---1---3---4---3---1---0---| 
C|--0---0---0---0---0---0---0---0--|--1---0---1---3---4---3---1---0---| 
    |............................| 

    1 + + + 2 + + + 3 + + + 4 + + +   1 + + + 2 + + + 3 + + + 4 + + + 

Chorus 2 

  We will find them... 

d|---------------------------------|----------------------------------| 1:17 
A|---------------------------------|----------------------------------| 
F|---------------------------------|----------------------------------| 
C|---------------------------------|----------------------------------| 
G|----------10------8-------7------|--8-------7-p-0-------7-----------| 
C|--7---7-------7-------7-------7--|------7-----------10------10\-----| 
    |...|      |.|     |.|     |.|       |.| 

    1 + + + 2 + + + 3 + + + 4 + + +   1 + + + 2 + + + 3 + + + 4 + + + 

d|---------------------------------|----------------------------------| 
A|---------------------------------|----------------------------------| 
F|---------------------------------|----------------------------------| 
C|---------------------------------|--5---5---L-----------------------| 
G|----------5-------3-------2------|--3---3---L---5---L---5---5---5---| 
C|--3---3-------3-------3-------3--|--------------5---L---5---5---5---| 
    |...|      |.|     |.|     |.|     

    1 + + + 2 + + + 3 + + + 4 + + +   1 + + + 2 + + + 3 + + + 4 + + + 

d|---------------------------------|---------------------------------| 
A|---------------------------------|---------------------------------| 
F|---------------------------------|---------------------------------| 
C|----------5-------3-------2------|----------5-------3-------2------| 
G|--0---0-------0-------0-------0--|--2---2-------2-------2-------2--| 
C|---------------------------------|---------------------------------| 
    |...|      |.|     |.|     |.|    |...|      |.|     |.|     |.| 

    1 + + + 2 + + + 3 + + + 4 + + +   1 + + + 2 + + + 3 + + + 4 + + + 

d|---------------------------------|---------------------------------| 
A|---------------------------------|---------------------------------| 
F|---------------------------------|---------------------------------| 
C|----------5-------3-------2------|---------------------------------| 
G|--3---3-------3-------3-------3--|--3-------L-----/-12------L------| 
C|---------------------------------|--3-------L-----/-12------L------| 
    |...|      |.|     |.|     |.|     

    1 + + + 2 + + + 3 + + + 4 + + +   1 + + + 2 + + + 3 + + + 4 + + + 

d|---------------------------------|----------------------------------| 
A|---------------------------------|----------------------------------| 
F|---------------------------------|----------------------------------| 
C|---------------------------------|----------------------------------| 
G|----------10------8-------7------|--8-------7-p-0-------7-----------| 
C|--7---7-------7-------7-------7--|------7-----------10------10\-----| 
    |...|      |.|     |.|     |.|       |.| 

    1 + + + 2 + + + 3 + + + 4 + + +   1 + + + 2 + + + 3 + + + 4 + + + 

d|---------------------------------|----------------------------------| 
A|---------------------------------|----------------------------------| 
F|---------------------------------|----------------------------------| 
C|---------------------------------|--5---5---L-----------------------| 
G|----------5-------3-------2------|--3---3---L---5---L---5---5---5---| 
C|--3---3-------3-------3-------3--|--------------5---L---5---5---5---| 
    |...|      |.|     |.|     |.|     

    1 + + + 2 + + + 3 + + + 4 + + +   1 + + + 2 + + + 3 + + + 4 + + + 

d|---------------------------------|---------------------------------| 
A|---------------------------------|---------------------------------| 
F|---------------------------------|---------------------------------| 
C|----------5-------3-------2------|----------5-------3-------2------| 
G|--0---0-------0-------0-------0--|--3---3-------3-------3-------3--| 
C|---------------------------------|---------------------------------| 
    |...|      |.|     |.|     |.|    |...|      |.|     |.|     |.| 

    1 + + + 2 + + + 3 + + + 4 + + +   1 + + + 2 + + + 3 + + + 4 + + + 

d|---------------------------------|---------------------------------| 
A|---------------------------------|---------------------------------| 
F|---------------------------------|---------------------------------| 
C|----------7-------5-------3------|---------------------------------| 
G|--5---5-------5-------5-------5--|--3-------L-----/-12------L------| 
C|---------------------------------|--3-------L-----/-12------L------| 
    |...|      |.|     |.|     |.|     

    1 + + + 2 + + + 3 + + + 4 + + +   1 + + + 2 + + + 3 + + + 4 + + + 

Break 

d|---------------------------------|----------------------------------| 01:39 
A|---------------------------------|----------------------------------| 
F|---------------------------------|----------------------------------| 
C|---------------------------------|----------------------------------| 
G|--8---7---8---10--11--10--8---7--|--8---7---8---10--11--10--8---7---| 
C|--8---7---8---10--11--10--8---7--|--8---7---8---10--11--10--8---7---| 

    1 + + + 2 + + + 3 + + + 4 + + +   1 + + + 2 + + + 3 + + + 4 + + + 

d|---------------------------------|----------------------------------| 
A|---------------------------------|----------------------------------| 
F|---------------------------------|----------------------------------| 
C|---------------------------------|--6-------6---6---6---------------| 
G|--4------------------------------|--4-------4---4---3---------------| 
C|--4-------4---4---4---4---4---4--|--------------------------4-/-\---| 
           |.....................|           |.....| 

    1 + + + 2 + + + 3 + + + 4 + + +   1 + + + 2 + + + 3 + + + 4 + + + 


d|---------------------------------|----------------------------------| 
A|---------------------------------|----------------------------------| 
F|---------------------------------|----------------------------------| 
C|---------------------------------|----------------------------------| 
G|--8---7---8---10--11--10--8---7--|--8---7---8---10--11--10--8---7---| 
C|--8---7---8---10--11--10--8---7--|--8---7---8---10--11--10--8---7---| 

    1 + + + 2 + + + 3 + + + 4 + + +   1 + + + 2 + + + 3 + + + 4 + + + 

d|---------------------------------|----------------------------------| 
A|---------------------------------|----------------------------------| 
F|---------------------------------|----------------------------------| 
C|---------------------------------|----------------------------------| 
G|--4------------------------------|--1---0---1---3---4---3---1---0---| 
C|--4-------4---4---4---4---4---4--|--1---0---1---3---4---3---1---0---| 
           |.....................| 

    1 + + + 2 + + + 3 + + + 4 + + +   1 + + + 2 + + + 3 + + + 4 + + + 

d|---------------------------------|----------------------------------| 01:50 
A|---------------------------------|----------------------------------| 
F|--5---5---7---7---8---8---7---5--|--5---7---7---11--11--11--11--11--| 
C|--0---0---0---0---0---0---0---0--|--0---0---0---0---0---0---0---0---| 
G|---------------------------------|----------------------------------| 
C|---------------------------------|----------------------------------| 
    |..............................................................| 

    1 + + + 2 + + + 3 + + + 4 + + +   1 + + + 2 + + + 3 + + + 4 + + + 

d|---------------------------------|----------------------------------| 
A|---------------------------------|----------------------------------| 
F|--5---5---7---7---8---8---7---5--|--5---5---5---5---5---5---5---5---| 
C|--0---0---0---0---0---0---0---6--|--6---6---6---6---6---6---6---6---| 
G|---------------------------------|----------------------------------| 
C|---------------------------------|----------------------------------| 
    |..............................................................| 

    1 + + + 2 + + + 3 + + + 4 + + +   1 + + + 2 + + + 3 + + + 4 + + + 

d|---------------------------------|----------------------------------| 
A|---------------------------------|----------------------------------| 
F|--5---5---7---7---8---8---7---5--|--5---7---7---11--11--11--11--11--| 
C|--0---0---0---0---0---0---0---0--|--0---0---0---0---0---0---0---0---| 
G|---------------------------------|----------------------------------| 
C|---------------------------------|----------------------------------| 
    |..............................................................| 

    1 + + + 2 + + + 3 + + + 4 + + +   1 + + + 2 + + + 3 + + + 4 + + + 

d|---------------------------------|----------------------------------| 
A|---------------------------------|----------------------------------| 
F|--5---5---7---7---8---8---7---5--|--5---5---5---5---5---5---5---5---| 
C|--0---0---0---0---0---0---0---6--|--6---6---6---6---6---6---6---6---| 
G|---------------------------------|----------------------------------| 
C|---------------------------------|----------------------------------| 
    |..............................................................| 

    1 + + + 2 + + + 3 + + + 4 + + +   1 + + + 2 + + + 3 + + + 4 + + + 

d|---------------------------------|----------------------------------| 
A|---------------------------------|----------------------------------| 
F|--5---5---7---7---8---8---7---5--|--5---7---7---11--11--11--11--11--| 
C|--0---0---0---0---0---0---0---0--|--0---0---0---0---0---0---0---0---| 
G|---------------------------------|----------------------------------| 
C|---------------------------------|----------------------------------| 
    |..............................................................| 

    1 + + + 2 + + + 3 + + + 4 + + +   1 + + + 2 + + + 3 + + + 4 + + + 

d|---------------------------------|----------------------------------| 
A|---------------------------------|----------------------------------| 
F|--5---5---7---7---8---8---7------|----------------------------------| 
C|--0---0---0---0---0---0---0------|----------------------------------| 
G|------------------------------6--|--L---6---6---5---L---5---5---0---| 
C|------------------------------6--|--L---6---6---5---L---5---5---0---| 
    |.......................| 

    1 + + + 2 + + + 3 + + + 4 + + +   1 + + + 2 + + + 3 + + + 4 + + + 

d|---------------------------------|-----------------------------------| 
A|---------------------------------|-----------------------------------| 
F|--5-------7-------8-------7---5--|--L---7---L---11--11---------------| 
C|--0-------0-------0-------0---0--|--L---0---L---0---0----------------| 
G|---------------------------------|-----------------------------------| 
C|---------------------------------|-----------------------------------| 

    1 + + + 2 + + + 3 + + + 4 + + +   1 + + + 2 + + + 3 + + + 4 + + + 

d|---------------------------------|-----------------------------------| 
A|---------------------------------|-----------------------------------| 
F|--5-------7-------8--------------|-----------------------------------| 
C|--0-------0-------0--------------|-----------------------------------| 
G|--------------------------0---6--|--L---6---6---5---L---5------------| 
C|--------------------------0---6--|--L---6---6---5---L---5---5-/-\----| 

    1 + + + 2 + + + 3 + + + 4 + + +   1 + + + 2 + + + 3 + + + 4 + + + 


d|---------------------------------|-----------------------------------| 02:12 
A|---------------------------------|-----------------------------------| 
F|------------------8---8---8------|--------------11--11--11--11-------| 
C|------------------x---x---x------|--------------x---x---x---x--------| 
G|--0-------0-------6---6---6---0--|------0-------9---9---9---9---0----| 
C|--0-------0-------------------0--|------0-----------------------0----| 

    1 + + + 2 + + + 3 + + + 4 + + +   1 + + + 2 + + + 3 + + + 4 + + + 

d|---------------------------------|-----------------------------------| 
A|---------------------------------|-----------------------------------| 
F|------------------8---8----------|-----------------------------------| 
C|------------------x---x----------|-----------------------------------| 
G|--0-------0-------6---6---0---6--|--L---6---6---5---L---5---5---0----| 
C|--0-------0---------------0---6--|--L---6---6---5---L---5---5---0----| 

    1 + + + 2 + + + 3 + + + 4 + + +   1 + + + 2 + + + 3 + + + 4 + + + 

d|---------------------------------|-----------------------------------| 
A|---------------------------------|-----------------------------------| 
F|------------------8---8---8------|--------------11--11--11--11-------| 
C|------------------x---x---x------|--------------x---x---x---x--------| 
G|--0-------0-------6---6---6---0--|------0-------9---9---9---9---0----| 
C|--0-------0-------------------0--|------0-----------------------0----| 

    1 + + + 2 + + + 3 + + + 4 + + +   1 + + + 2 + + + 3 + + + 4 + + + 

d|---------------------------------|-----------------------------------| 
A|---------------------------------|-----------------------------------| 
F|------------------8---8----------|-----------------------------------| 
C|------------------x---x----------|-----------------------------------| 
G|--0-------0-------6---6---0---6--|--L---6---6---5---L---5---5---0----| 
C|--0-------0---------------0---6--|--L---6---6---5---L---5---5---0----| 

    1 + + + 2 + + + 3 + + + 4 + + +   1 + + + 2 + + + 3 + + + 4 + + + 

   The solo starts 

d|---------------------------------|-----------------------------------| 02:22 
A|---------------------------------|-----------------------------------| 
F|------------------8---8---8------|--------------11--11--11--11-------| 
C|------------------x---x---x------|--------------x---x---x---x--------| 
G|--0-------0-------6---6---6---0--|------0-------9---9---9---9---0----| 
C|--0-------0-------------------0--|------0-----------------------0----| 

    1 + + + 2 + + + 3 + + + 4 + + +   1 + + + 2 + + + 3 + + + 4 + + + 

d|---------------------------------|-----------------------------------| 
A|---------------------------------|-----------------------------------| 
F|------------------8---8----------|-----------------------------------| 
C|------------------x---x----------|-----------------------------------| 
G|--0-------0-------6---6---0---6--|--L---6---6---5---L---5---5---0----| 
C|--0-------0---------------0---6--|--L---6---6---5---L---5---5---0----| 

    1 + + + 2 + + + 3 + + + 4 + + +   1 + + + 2 + + + 3 + + + 4 + + + 

d|---------------------------------|-----------------------------------| 
A|---------------------------------|-----------------------------------| 
F|------------------8---8---8------|--------------11--11--11--11-------| 
C|------------------x---x---x------|--------------x---x---x---x--------| 
G|--0-------0-------6---6---6---0--|------0-------9---9---9---9---0----| 
C|--0-------0-------------------0--|------0-----------------------0----| 

    1 + + + 2 + + + 3 + + + 4 + + +   1 + + + 2 + + + 3 + + + 4 + + + 

d|---------------------------------|-----------------------------------| 
A|---------------------------------|-----------------------------------| 
F|------------------8---8----------|-----------------------------------| 
C|------------------x---x----------|-----------------------------------| 
G|--0-------0-------6---6---0---6--|--L---6---6---5---L---5------------| 
C|--0-------0---------------0---6--|--L---6---6---5---L---5---5-/-\----| 
                                                               /end solo/ 
    1 + + + 2 + + + 3 + + + 4 + + +   1 + + + 2 + + + 3 + + + 4 + + + 

Repeat the verse riff, but different singing here 

  We will find them 

d|---------------------------------|----------------------------------| 02:34 
A|---------------------------------|----------------------------------| 
F|---------------------------------|----------------------------------| 
C|---------------------------------|----------------------------------| 
G|---------------------------------|------6-----------5-------3-h-5---| 
C|--0---0---0---0---0---0---0---0--|--0-------0---0-------0-----------| 
    |..................................|      |....|     |.| 

    1 + + + 2 + + + 3 + + + 4 + + +   1 + + + 2 + + + 3 + + + 4 + + + 

d|---------------------------------|----------------------------------| 
A|---------------------------------|----------------------------------| 
F|---------------------------------|----------------------------------| 
C|---------------------------------|----------------------------------| 
G|---------------------------------|----------------------------------| 
C|--0---0---0---0---0---0---0---0--|--0---6---0---0---5---0---3-h-5---| 
    |..................................|      |....|     |.| 

    1 + + + 2 + + + 3 + + + 4 + + +   1 + + + 2 + + + 3 + + + 4 + + + 

d|---------------------------------|----------------------------------| 
A|---------------------------------|----------------------------------| 
F|---------------------------------|----------------------------------| 
C|---------------------------------|----------------------------------| 
G|---------------------------------|------6-----------5-------3-h-5---| 
C|--0---0---0---0---0---0---0---0--|--0-------0---0-------0-----------| 
    |..................................|      |....|     |.| 

    1 + + + 2 + + + 3 + + + 4 + + +   1 + + + 2 + + + 3 + + + 4 + + + 

d|---------------------------------|----------------------------------| 
A|---------------------------------|----------------------------------| 
F|---------------------------------|----------------------------------| 
C|---------------------------------|----------------------------------| 
G|---------------------------------|--1---0---1---3---4---3---1---0---| 
C|--0---0---0---0---0---0---0---0--|--1---0---1---3---4---3---1---0---| 
    |............................| 

    1 + + + 2 + + + 3 + + + 4 + + +   1 + + + 2 + + + 3 + + + 4 + + + 

d|---------------------------------|----------------------------------| 
A|---------------------------------|----------------------------------| 
F|---------------------------------|----------------------------------| 
C|---------------------------------|----------------------------------| 
G|---------------------------------|------6-----------5-------3-h-5---| 
C|--0---0---0---0---0---0---0---0--|--0-------0---0-------0-----------| 
    |..................................|      |....|     |.| 

    1 + + + 2 + + + 3 + + + 4 + + +   1 + + + 2 + + + 3 + + + 4 + + + 

d|---------------------------------|----------------------------------| 
A|---------------------------------|----------------------------------| 
F|---------------------------------|----------------------------------| 
C|---------------------------------|----------------------------------| 
G|---------------------------------|----------------------------------| 
C|--0---0---0---0---0---0---0---0--|--0---6---0---0---5---0---3-h-5---| 
    |..................................|      |....|     |.| 

    1 + + + 2 + + + 3 + + + 4 + + +   1 + + + 2 + + + 3 + + + 4 + + + 

d|---------------------------------|----------------------------------| 
A|---------------------------------|----------------------------------| 
F|---------------------------------|----------------------------------| 
C|---------------------------------|----------------------------------| 
G|---------------------------------|------6-----------5-------3-h-5---| 
C|--0---0---0---0---0---0---0---0--|--0-------0---0-------0-----------| 
    |..................................|      |....|     |.| 

    1 + + + 2 + + + 3 + + + 4 + + +   1 + + + 2 + + + 3 + + + 4 + + + 

d|---------------------------------|----------------------------------| 
A|---------------------------------|----------------------------------| 
F|---------------------------------|----------------------------------| 
C|---------------------------------|----------------------------------| 
G|---------------------------------|--1---0---1---3---4---3---1---0---| 
C|--0---0---0---0---0---0---0---0--|--1---0---1---3---4---3---1---0---| 
    |............................| 

    1 + + + 2 + + + 3 + + + 4 + + +   1 + + + 2 + + + 3 + + + 4 + + + 

Alt. verse riff 

d|---------------------------------|----------------------------------| 02:55 
A|---------------------------------|----------------------------------| 
F|---------------------------------|----------------------------------| 
C|---------------------------------|----------------------------------| 
G|---------------------------------|------6-----------5-------3-h-5---| 
C|--0---0-0-0-0-0---0---0-0-0-0-0--|--0-------0---0-------0-----------| 
    |..................................|      |....|     |.| 

    1 + + + 2 + + + 3 + + + 4 + + +   1 + + + 2 + + + 3 + + + 4 + + + 

d|---------------------------------|----------------------------------| 
A|---------------------------------|----------------------------------| 
F|---------------------------------|----------------------------------| 
C|---------------------------------|----------------------------------| 
G|---------------------------------|----------------------------------| 
C|--0---0-0-0-0-0---0---0-0-0-0-0--|--0---6---0---0---5---0---3-h-5---| 
    |..................................|      |....|     |.| 

    1 + + + 2 + + + 3 + + + 4 + + +   1 + + + 2 + + + 3 + + + 4 + + + 

d|---------------------------------|----------------------------------| 
A|---------------------------------|----------------------------------| 
F|---------------------------------|----------------------------------| 
C|---------------------------------|----------------------------------| 
G|---------------------------------|------6-----------5-------3-h-5---| 
C|--0---0-0-0-0-0---0---0-0-0-0-0--|--0-------0---0-------0-----------| 
    |..................................|      |....|     |.| 

    1 + + + 2 + + + 3 + + + 4 + + +   1 + + + 2 + + + 3 + + + 4 + + + 

d|---------------------------------|----------------------------------| 
A|---------------------------------|----------------------------------| 
F|---------------------------------|----------------------------------| 
C|---------------------------------|----------------------------------| 
G|---------------------------------|--1---0---1---3---4---3---1---0---| 
C|--0---0-0-0-0-0---0---0-0-0-0-0--|--1---0---1---3---4---3---1---0---| 
    |............................| 

    1 + + + 2 + + + 3 + + + 4 + + +   1 + + + 2 + + + 3 + + + 4 + + + 

d|---------------------------------|----------------------------------| 
A|---------------------------------|----------------------------------| 
F|---------------------------------|----------------------------------| 
C|---------------------------------|----------------------------------| 
G|---------------------------------|------6-----------5-------3-h-5---| 
C|--0---0-0-0-0-0---0---0-0-0-0-0--|--0-------0---0-------0-----------| 
    |..................................|      |....|     |.| 

    1 + + + 2 + + + 3 + + + 4 + + +   1 + + + 2 + + + 3 + + + 4 + + + 

d|---------------------------------|----------------------------------| 
A|---------------------------------|----------------------------------| 
F|---------------------------------|----------------------------------| 
C|---------------------------------|----------------------------------| 
G|---------------------------------|----------------------------------| 
C|--0---0-0-0-0-0---0---0-0-0-0-0--|--0---6---0---0---5---0---3-h-5---| 
    |..................................|      |....|     |.| 

    1 + + + 2 + + + 3 + + + 4 + + +   1 + + + 2 + + + 3 + + + 4 + + + 

d|---------------------------------|----------------------------------| 
A|---------------------------------|----------------------------------| 
F|---------------------------------|----------------------------------| 
C|---------------------------------|----------------------------------| 
G|---------------------------------|------6-----------5-------3-h-5---| 
C|--0---0-0-0-0-0---0---0-0-0-0-0--|--0-------0---0-------0-----------| 
    |..................................|      |....|     |.| 

    1 + + + 2 + + + 3 + + + 4 + + +   1 + + + 2 + + + 3 + + + 4 + + + 

d|---------------------------------|----------------------------------| 
A|---------------------------------|----------------------------------| 
F|---------------------------------|----------------------------------| 
C|---------------------------------|----------------------------------| 
G|---------------------------------|--1---0---1---3---4---3---1---0---| 
C|--0---0-0-0-0-0---0---0-0-0-0-0--|--1---0---1---3---4---3---1---0---| 
    |............................| 

    1 + + + 2 + + + 3 + + + 4 + + +   1 + + + 2 + + + 3 + + + 4 + + + 


Outro 

d|---------------------------------|---------------------------------| 03:17 
A|---------------------------------|---------------------------------| 
F|---------------------------------|---------------------------------| 
C|---------------------------------|----------3-p-2-----------5-h-7--| 
G|----------3-p-2-----------5-p-3--|------------------0---0----------| 
C|--2---2-----------3---3----------|--5---5--------------------------| 
   |.....|         |.....|           |.....|         |.....| 

    1 + + + 2 + + + 3 + + + 4 + + +   1 + + + 2 + + + 3 + + + 4 + + + 

d|---------------------------------|---------------------------------| 
A|---------------------------------|---------------------------------| 
F|---------------------------------|---------------------------------| 
C|----------9-p-7------------------|---------------------------------| 
G|--------------------------10p-8--|----------7-p-5---3---3---3---0--| 
C|--9---9-----------10--10---------|--7---7-----------3---3---3---0--| 
   |.....|         |.....|           |.....| 

    1 + + + 2 + + + 3 + + + 4 + + +   1 + + + 2 + + + 3 + + + 4 + + + 

d|---------------------------------|---------------------------------| 
A|---------------------------------|---------------------------------| 
F|---------------------------------|---------------------------------| 
C|---------------------------------|----------3-p-2-----------5-h-7--| 
G|----------3-p-2-----------5-p-3--|------------------0---0----------| 
C|--2---2-----------3---3----------|--5---5--------------------------| 
   |.....|         |.....|           |.....|         |.....| 

    1 + + + 2 + + + 3 + + + 4 + + +   1 + + + 2 + + + 3 + + + 4 + + + 

d|---------------------------------|---------------------------------| 
A|---------------------------------|---------------------------------| 
F|---------------------------------|---------------------------------| 
C|----------9-p-7------------------|---------------------------------| 
G|--------------------------10p-8--|----------7-p-5---3---3---3---0--| 
C|--9---9-----------10--10---------|--7---7-----------3---3---3---0--| 
   |.....|         |.....|           |.....| 

    1 + + + 2 + + + 3 + + + 4 + + +   1 + + + 2 + + + 3 + + + 4 + + + 


d|---------------------------------|---------------------------------| 
A|---------------------------------|---------------------------------| 
F|---------------------------------|---------------------------------| 
C|---------------------------------|----------3-p-2------------------| 
G|----------3-p-2-----------5-p-3--|------------------3---3---3---0--| 
C|--2---2-----------3---3----------|--5---5-----------3---3---3---0--| 
   |.....|         |.....|           |.....| 

    1 + + + 2 + + + 3 + + + 4 + + +   1 + + + 2 + + + 3 + + + 4 + + + 

d|---------------------------------|---------------------------------|-----| 
A|---------------------------------|---------------------------------|-----| 
F|---------------------------------|---------------------------------|-----| 
C|---------------------------------|----------3-p-2------------------|-----| 
G|----------3-p-2-----------5-p-3--|------------------3---3---3---0--|--2--| 
C|--2---2-----------3---3----------|--5---5-----------3---3---3---0--|--2--| 
   |.....|         |.....|           |.....| 

    1 + + + 2 + + + 3 + + + 4 + + +   1 + + + 2 + + + 3 + + + 4 + + +  


************************************ 

| x   Dead note 
| h   Hammer-on 
| p   Pull-off 
| /   Slide up 
| \   Slide down 
| ..  Palm mute 
| L   Let ring 

************************************ 
  

top 5 | prong
top rock'n roll
Outras músicas do artista letras do(a) Prong
Top cifras »Top artistas »
Petaxxon Comunicação Online
Cifras.com.br - Melhor e mais completo site de cifras e tablaturas do Brasil
Mais de 1 milhão de acordes de músicas cadastradas desde 2003
As informações contidas no nosso site são colaborações de seus usuários e podem conter erros, sendo assim, não nos responsabilizamos sobre nenhuma destas.
close
menos
mais
close
Cor dos acordes:

Cor da letra:

 

save
close
close
 
redimensionar