Cifras e Tablaturas
Propagandhi

Propagandhi

Iteration

Cifras Cancelar Versão de Impressão

Propagandhi - Iteration

Tom:

  			
Intro 
eb|-----------| 
Bb|-----------| 
Gb|--7-7------| 
Db|--7-7--2---| 
Ab|--5-5--2---| 
Eb|-------0---| 

Verse 
eb|------------------------------------------------------------------------------------------------| 
Bb|------------------------------------------------------------------------------------------------| 
Gb|------9-8-----9-8---------------------------7-7-7-7-7-7---------------------------7-7-7-7-7-7---| 
Db|--2-2-9-9-2-2-9-9--12-12-12-14-15-14-12-14--7-7-7-7-7-7--12-12-12-14-15-14-12-14--7-7-7-7-7-7---| 
Ab|--2-2-7-6-2-2-7-6--10-10-10-10-10-10-10-10--5-5-5-5-5-5--10-10-10-10-10-10-10-10--5-5-5-5-5-5---| 
Eb|--0-0-----0-0-----------------------------------------------------------------------------------| 

eb|--------------------------------------------------------------------------| 
Bb|--------------------------------------------------------------------------| 
Gb|------9-8-----9-8-----9-8-----9-8---------------------------7-7-7-7-7-7---| 
Db|--2-2-9-9-2-2-9-9-2-2-9-9-2-2-9-9--12-12-12-14-15-14-12-14--7-7-7-7-7-7---| 
Ab|--2-2-7-6-2-2-7-6-2-2-7-6-2-2-7-6--10-10-10-10-10-10-10-10--5-5-5-5-5-5---| 
Eb|--0-0-----0-0-----0-0-----0-0---------------------------------------------| 

eb|-----------------------------------------| 
Bb|-----------------------------------------| 
Gb|---------------------------7-7-7-7-7-7---| 
Db|--12-12-12-14-15-14-12-14--7-7-7-7-7-7---| 
Ab|--10-10-10-10-10-10-10-10--5-5-5-5-5-5---| 
Eb|-----------------------------------------| 

Chorus 
eb|---------------------------------------------------------------------| 
Bb|---------------------------------------------------------------------| 
Gb|--4-4-5-5-5-5-5-5-7-7-9-9-9-9-9-9--4-4-5-5-5-5-5-5-7-7-9-9-9-9-9-9---| 
Db|--4-4-5-5-5-5-5-5-7-7-9-9-9-9-9-9--4-4-5-5-5-5-5-5-7-7-9-9-9-9-9-9---| 
Ab|--2-2-3-3-3-3-3-3-5-5-7-7-7-7-7-7--2-2-3-3-3-3-3-3-5-5-7-7-7-7-7-7---| 
Eb|---------------------------------------------------------------------| 

eb|--------------------------------------------------------| 
Bb|--------------------------------------------------------| 
Gb|--4-4-5-5-5-5-5-5-7-7-9-9-9-9-9-9--4-4-5-5-5-5-5--7-7---| 
Db|--4-4-5-5-5-5-5-5-7-7-9-9-9-9-9-9--4-4-5-5-5-5-5--7-7---| 
Ab|--2-2-3-3-3-3-3-3-5-5-7-7-7-7-7-7--2-2-3-3-3-3-3--5-5---| 
Eb|--------------------------------------------------------| 

Verse 
eb|--------------------------------------------------------------------------| 
Bb|--------------------------------------------------------------------------| 
Gb|------9-8-----9-8-----9-8-----9-8---------------------------7-7-7-7-7-7---| 
Db|--2-2-9-9-2-2-9-9-2-2-9-9-2-2-9-9--12-12-12-14-15-14-12-14--7-7-7-7-7-7---| 
Ab|--2-2-7-6-2-2-7-6-2-2-7-6-2-2-7-6--10-10-10-10-10-10-10-10--5-5-5-5-5-5---| 
Eb|--0-0-----0-0-----0-0-----0-0---------------------------------------------| 

eb|-----------------------------------------| 
Bb|-----------------------------------------| 
Gb|---------------------------7-7-7-7-7-7---| 
Db|--12-12-12-14-15-14-12-14--7-7-7-7-7-7---| 
Ab|--10-10-10-10-10-10-10-10--5-5-5-5-5-5---| 
Eb|-----------------------------------------| 

Chorus 
eb|---------------------------------------------------------------------| 
Bb|---------------------------------------------------------------------| 
Gb|--4-4-5-5-5-5-5-5-7-7-9-9-9-9-9-9--4-4-5-5-5-5-5-5-7-7-9-9-9-9-9-9---| 
Db|--4-4-5-5-5-5-5-5-7-7-9-9-9-9-9-9--4-4-5-5-5-5-5-5-7-7-9-9-9-9-9-9---| 
Ab|--2-2-3-3-3-3-3-3-5-5-7-7-7-7-7-7--2-2-3-3-3-3-3-3-5-5-7-7-7-7-7-7---| 
Eb|---------------------------------------------------------------------| 

eb|-------------------------------------------------------------| 
Bb|-------------------------------------------------------------| 
Gb|--4-4-5-5-5-5-5-5-7-7-9-9-9-9-9-9--4-4-5-5-5-5-5-5--7-7------| 
Db|--4-4-5-5-5-5-5-5-7-7-9-9-9-9-9-9--4-4-5-5-5-5-5-5--7-7--2---| 
Ab|--2-2-3-3-3-3-3-3-5-5-7-7-7-7-7-7--2-2-3-3-3-3-3-3--5-5--2---| 
Eb|---------------------------------------------------------0---| 

Bridge 
eb|-----------------0------------------------| 
Bb|-----------------0------------------------| 
Gb|-------10-10--------9-10--9-10--9-10--9---| 
Db|--(2)--10-10--2----10-10-10-10-10-10-10---| 
Ab|--(2)---8--8--2-----7--8--7--8--7--8--7---| 
Eb|--(0)---------0---------------------------| 

Bridge 
eb|----------------------------------------------------| 
Bb|----------------------------------------------------| 
Gb|----------------------------------------------------| 
Db|----------------------------------------------------| 
Ab|--7-7-7-8-7-7-7-7-7-7-7-8-7-7-7---7-7-7-8-7-7-7-8---| 
Eb|--------------------------------0-------------------| 
   pm.....   .....   .....   .....   .....   ..... 

eb|--------------------------------------------------------------------| 
Bb|--------------------------------------------------------------------| 
Gb|--------------------------------------------------------------------| 
Db|--------------------------------------------------------------------| 
Ab|--7-7-7-8-7-7-7---7-7-7-8-7-7-7-7-7-7-7-8-7-7-7---7-7-7-8-7-7-7-8---| 
Eb|----------------0-------------------------------0-------------------| 
   pm.....   .....   .....   .....   .....   .....   .....   ..... 

Verse 
eb|---------------------------------------------------------------------------------------------------------| 
Bb|---------------------------------------------------------------------------------------------------------| 
Gb|---9-10--9-10--9-10--9------9-10--9-10--9-10--9-9----9-10--9-10--9-10--9------9-10--9-10--9-10--9-10-10--| 
Db|--10-10-10-10-10-10-10-2-2-10-10-10-10-10-10-10-9-2-10-10-10-10-10-10-10-2-2-10-10-10-10-10-10-10-10-10--| 
Ab|---7--8--7--8--7--8--7-2-2--7--8--7--8--7--8--7-7-2--7--8--7--8--7--8--7-2-2--7--8--7--8--7--8--7--8--8--| 
Eb|-----------------------0-0------------------------0----------------------0-0-----------------------------| 

eb|---------------------------------------------------------------------------------------------------------| 
Bb|---------------------------------------------------------------------------------------------------------| 
Gb|---9-10--9-10--9-10--9------9-10--9-10--9-10--9-9----9-10--9-10--9-10--9------9-10--9-10--9-10--9-10-10--| 
Db|--10-10-10-10-10-10-10-2-2-10-10-10-10-10-10-10-9-2-10-10-10-10-10-10-10-2-2-10-10-10-10-10-10-10-10-10--| 
Ab|---7--8--7--8--7--8--7-2-2--7--8--7--8--7--8--7-7-2--7--8--7--8--7--8--7-2-2--7--8--7--8--7--8--7--8--8--| 
Eb|-----------------------0-0------------------------0----------------------0-0-----------------------------| 

eb|--------------------------------------------------------------------| 
Bb|--------------------------------------------------------------------| 
Gb|--------------------------------------------------------------------| 
Db|---------2-2-2-2-2-2-2-2--5-5--7-7--2-2-2-2-2-2-2-2--5-5-5--7-7-7---| 
Ab|--5-7-8--2-2-2-2-2-2-2-2--5-5--7-7--2-2-2-2-2-2-2-2--5-5-5--7-7-7---| 
Eb|---------0-0-0-0-0-0-0-0--3-3--5-5--0-0-0-0-0-0-0-0--3-3-3--5-5-5---| 

eb|-----------------------------------------------------------------| 
Bb|-----------------------------------------------------------------| 
Gb|----------------12-12-12-14-14-14--5-5-5-5-5-5-7-7-7-7-7-7-9-9---| 
Db|---2-2-2-2-2-2--12-12-12-12-12-12--5-5-5-5-5-5-7-7-7-7-7-7-9-9---| 
Ab|---2-2-2-2-2-2--10-10-10-10-10-10--3-3-3-3-3-3-5-5-5-5-5-5-7-7---| 
Eb|---0-0-0-0-0-0---------------------------------------------------| 

eb|---------------------------------------------------------------------------------------| 
Bb|---------------------------------------------------------------------------------------| 
Gb|----------------12-12-12-14-14-14--5-5-5-5-5-5-7-7-7-7-7-7-9-9---9-10--9-10--9-10--9---| 
Db|---2-2-2-2-2-2--12-12-12-12-12-12--5-5-5-5-5-5-7-7-7-7-7-7-9-9--10-10-10-10-10-10-10---| 
Ab|---2-2-2-2-2-2--10-10-10-10-10-10--3-3-3-3-3-3-5-5-5-5-5-5-7-7---7--8--7--8--7--8--7---| 
Eb|---0-0-0-0-0-0-------------------------------------------------------------------------| 

Bridge 
eb|---------------------------------------------------------------------------------------------------------| 
Bb|---------------------------------------------------------------------------------------------------------| 
Gb|---9-10--9-10--9-10--9------9-10--9-10--9-10--9-9----9-10--9-10--9-10--9------9-10--9-10--9-10--9-10-10--| 
Db|--10-10-10-10-10-10-10-2-2-10-10-10-10-10-10-10-9-2-10-10-10-10-10-10-10-2-2-10-10-10-10-10-10-10-10-10--| 
Ab|---7--8--7--8--7--8--7-2-2--7--8--7--8--7--8--7-7-2--7--8--7--8--7--8--7-2-2--7--8--7--8--7--8--7--8--8--| 
Eb|-----------------------0-0------------------------0----------------------0-0-----------------------------| 

eb|---------------------------------------------------------------------------------------------------------| 
Bb|---------------------------------------------------------------------------------------------------------| 
Gb|---9-10--9-10--9-10--9------9-10--9-10--9-10--9-9----9-10--9-10--9-10--9------9-10--9-10--9-10--9-10-10--| 
Db|--10-10-10-10-10-10-10-2-2-10-10-10-10-10-10-10-9-2-10-10-10-10-10-10-10-2-2-10-10-10-10-10-10-10-10-10--| 
Ab|---7--8--7--8--7--8--7-2-2--7--8--7--8--7--8--7-7-2--7--8--7--8--7--8--7-2-2--7--8--7--8--7--8--7--8--8--| 
Eb|-----------------------0-0------------------------0----------------------0-0-----------------------------| 

eb|----------------------------------------------------------| 
Bb|----------------------------------------------------------| 
Gb|-----5-----5-7------------------------------7-7-7-7-7-7---| 
Db|--2--5--2--5-7--2--12-12-12-14-15-14-12-14--7-7-7-7-7-7---| 
Ab|--2--3--2--3-5--2--10-10-10-10-10-10-10-10--5-5-5-5-5-5---| 
Eb|--0-----0-------0-----------------------------------------| 

eb|-------------------------------| 
Bb|-------------------------------| 
Gb|---------------------------4---| 
Db|--12-12-12-14-15-14-12-14--4---| 
Ab|--10-10-10-10-10-10-10-10--2---| 
Eb|-------------------------------| 

Tag 
eb|-----------------------------------------------------------------| 
Bb|-----------------------------------------------------------------| 
Gb|--4-4-4-5-5-5-5-5-5-7-7-7-9-9-9-9-9-9-7-7-7--5--4--5-5-5-5-5-5---| 
Db|--4-4-4-5-5-5-5-5-5-7-7-7-9-9-9-9-9-9-7-7-7--5--4--5-5-5-5-5-5---| 
Ab|--2-2-2-3-3-3-3-3-3-5-5-5-7-7-7-7-7-7-5-5-5--3--2--3-3-3-3-3-3---| 
Eb|-----------------------------------------------------------------| 

eb|----------------------------------------------------------------------| 
Bb|----------------------------------------------------------------------| 
Gb|--4-4-4-5-5-5-5-5-5-7-7-7-9-9-9-9-9-9-7-7-7-5-5-5-4-4-4-5-5-5-5-5-5---| 
Db|--4-4-4-5-5-5-5-5-5-7-7-7-9-9-9-9-9-9-7-7-7-5-5-5-4-4-4-5-5-5-5-5-5---| 
Ab|--2-2-2-3-3-3-3-3-3-5-5-5-7-7-7-7-7-7-5-5-5-3-3-3-2-2-2-3-3-3-3-3-3---| 
Eb|----------------------------------------------------------------------| 

Outro 
eb|--------------------17p15p12--------17p15p12--------17p15p12---------17p15p12--------17p15p12-----------| 
Bb|-----12h15p12-12------------15p13p12--------15p13p12--------15p13p12---------15p13p12--------15p13p12---| 
Gb|--14----------14b---------------------------------------------------------------------------------------| 
Db|--------------------------------------------------------------------------------------------------------| 
Ab|--------------------------------------------------------------------------------------------------------| 
Eb|--------------------------------------------------------------------------------------------------------| 

eb|-17p15p12--------17p15p12--------17p15p12--------17p15p12--------17p15p12--------17p15p12-----------| 
Bb|---------15p13p12--------15p13p12--------15p13p12--------15p13p12--------15p13p12--------15p13p12---| 
Gb|----------------------------------------------------------------------------------------------------| 
Db|----------------------------------------------------------------------------------------------------| 
Ab|----------------------------------------------------------------------------------------------------| 
Eb|----------------------------------------------------------------------------------------------------| 

eb|-17p15p12--------19b---19-17-15-17-15-14-15--17b--19b--21b--21-19-17-19b---| 
Bb|---------15p13p12----------------------------------------------------------| 
Gb|---------------------------------------------------------------------------| 
Db|---------------------------------------------------------------------------| 
Ab|---------------------------------------------------------------------------| 
Eb|---------------------------------------------------------------------------| 

eb|--5p3p0-----5p3p0-----5p3p0-----5p3p0--------| 
Bb|-------3p2p0-----3p2p0-----3p2p0-----3p2p0---| 
Gb|---------------------------------------------| 
Db|---------------------------------------------| 
Ab|---------------------------------------------| 
Eb|---------------------------------------------| 


************************************ 

| (n) Ghost note 
| h   Hammer-on 
| p   Pull-off 
| b   Bend 
| pm  Palm mute 

************************************ 
    	
fixar
fixar inscrever-se

enviado porenviado por: bombaXXX
cifra enviadaCorrigida por: sem correções
logo top cifrasComente
ico música do artistaMúsicas deste artista
ico curtiuCurtiu?
ico destaqueDestaque
Petaxxon Comunicação Online

Cifras.com.br - Melhor e mais completo site de cifras e tablaturas do Brasil Mais de 1 milhão de acordes de músicas cadastradas desde 2003
As informações contidas no nosso site são colaborações de seus usuários e podem conter erros, sendo assim, não nos responsabilizamos sobre nenhuma destas.

close
menos
mais
close
Cor dos acordes:

Cor da letra:

close
Alinhar acordes a direita Alinhar acordes a esquerda Alinhar acordes em baixo Alinhar acordes no topo
close
  Mostrar todos os acordes Esconder acordes muito fáceis Esconder acordes fáceis Esconder acordes intermediários
redimensionar
glossário