Cifras e Tablaturas
ProtoShredanoid

ProtoShredanoid

Arrival

Cifras Cancelar Versão de Impressão Print

ProtoShredanoid - Arrival

Tom: E

  • 0:00 / 0:00
  			 


      E  S S S S S S E  S S S S S S    E  S S S S S S E  S S Q      
E||---------------------------------|-----------------------------| 
B||---------------------------------|-----------------------------| 
G||*-------6-L-----6------6-L-----6-|-------6-L-----6------6-L----| 
D||*-----4-----4--------6-----6-----|-----4-----4--------6--------| 
A||---5----------5---4----------4---|--5----------5---4-----------| 
E||---------------------------------|-----------------------------| 


  E  S S S S S S E  S S S S S S    E  S S S S S S E  S S S S S S   
--------------------------------|--------------------------------| 
--------------------------------|--------------------------------| 
-------6-L-----6------6-L-----6-|-------6-L-----6----6-----6---6-| 
-----4-----4--------6-----6-----|-----4-----4----------------6---| 
--5----------5---4----------4---|--5----------5---4----2-L-------| 
--------------------------------|--------------------------------| 


  E  S S S S S S E  S S S S S S    E  S S S S S S E  S S Q      
--------------------------------|-----------------------------| 
--------------------------------|-----------------------------| 
-------6-L-----6------6-L-----6-|-------6-L-----6------6-L----| 
-----4-----4--------6-----6-----|-----4-----4--------6--------| 
--5----------5---4----------4---|--5----------5---4-----------| 
--------------------------------|-----------------------------| 


  E  S S S S S S E  S S S S S S    E  S S S S S S E  S S S S S S   
--------------------------------|--------------------------------| 
--------------------------------|--------------------------------| 
-------6-L-----6------6-L-----6-|-------6-L-----6----6-----6---6-| 
-----4-----4--------6-----6-----|-----4-----4----------------6---| 
--5----------5---4----------4---|--5----------5---4----2-L-------| 
--------------------------------|--------------------------------| 


  E  S S S S S S E  S S S S S S    E  S S S S S S E  S S Q      
--------------------------------|-----------------------------| 
--------------------------------|-----------------------------| 
-------6-L-----6------6-L-----6-|-------6-L-----6------6-L----| 
-----4-----4--------6-----6-----|-----4-----4--------6--------| 
--5----------5---4----------4---|--5----------5---4-----------| 
--------------------------------|-----------------------------| 


  E  S S S S S S E  S S S S S S    E  S S S S S S E  S S S S S S   
--------------------------------|--------------------------------| 
--------------------------------|--------------------------------| 
-------6-L-----6------6-L-----6-|-------6-L-----6----6-----6---6-| 
-----4-----4--------6-----6-----|-----4-----4----------------6---| 
--5----------5---4----------4---|--5----------5---4----2-L-------| 
--------------------------------|--------------------------------| 


  E  S S S S S S E  S S S S S S    E  S S S S S S E  S S Q      
--------------------------------|-----------------------------| 
--------------------------------|-----------------------------| 
-------6-L-----6------6-L-----6-|-------6-L-----6------6-L----| 
-----4-----4--------6-----6-----|-----4-----4--------6--------| 
--5----------5---4----------4---|--5----------5---4-----------| 
--------------------------------|-----------------------------| 


  E  S S S S S S E  S S S S S S    E  S S S S S S E  S S S S S S             
--------------------------------|--------------------------------|----|----| 
--------------------------------|--------------------------------|----|----| 
-------6-L-----6------6-L-----6-|-------6-L-----6----6-----6---6-|----|----| 
-----4-----4--------6-----6-----|-----4-----4----------------6---|----|----| 
--5----------5---4----------4---|--5----------5---4----2-L-------|----|----| 
--------------------------------|--------------------------------|----|----| 


----|----|-----||----|| 
----|----|-----||----|| 
----|----|----*||----|| 
----|----|----*||----|| 
----|----|-----||----|| 
----|----|-----||----|| 



                                    Arrival                                      


                                                                 ProtoShredanoid 
Melody Guitar 



                                       W                    
E||--------|-------|-------|-------|----------------------| 
B||--------|-------|-------|-------|--17b~----------------| 
G||*-------|-------|-------|-------|----------------------| 
D||*-------|-------|-------|-------|----------------------| 
A||--------|-------|-------|-------|----------------------| 
E||--------|-------|-------|-------|----------------------| 


   H           Q      Q       
----------------------------| 
--17b~--------14~-----L\----| 
----------------------------| 
----------------------------| 
----------------------------| 
----------------------------| 


  S  T   T   T   T   S  E   S S  E   S   S  E  E     
---------------------------------------------------| 
----12h-14s-17s-14p-12--L--14---/9--12-------------| 
---------------------------------------\11--L--9~--| 
---------------------------------------------------| 
---------------------------------------------------| 
---------------------------------------------------| 


  S  T   T   T   T   S  E   S S  E   S  S   Q        W                    
------------------------------------14-----------|----------------------| 
----14h-17s-14s-12h-14--L-------12-----14~--L----|--17b~----------------| 
---------------------------13--------------------|----------------------| 
-------------------------------------------------|----------------------| 
-------------------------------------------------|----------------------| 
-------------------------------------------------|----------------------| 


   H           Q      Q       
----------------------------| 
--17b~--------14~-----L\----| 
----------------------------| 
----------------------------| 
----------------------------| 
----------------------------| 


  S  T   T   T   T   S  E   S S  E   S   S  E  E     
---------------------------------------------------| 
----12h-14s-17s-14p-12--L--14---/9--12-------------| 
---------------------------------------\11--L--9~--| 
---------------------------------------------------| 
---------------------------------------------------| 
---------------------------------------------------| 


  S  T   T   T   T   S  E   S S  E   S  S   Q        W                          
------------------------------------14-----------|--------------------|-------| 
----14h-17s-14s-12h-14--L-------12-----14~--L----|---L----------------|-------| 
---------------------------13--------------------|--------------------|-------| 
-------------------------------------------------|--------------------|-------| 
-------------------------------------------------|--------------------|-------| 
-------------------------------------------------|--------------------|-------| 


-------|-------|-------|-------|-------|-------|--------||-------|| 
-------|-------|-------|-------|-------|-------|--------||-------|| 
-------|-------|-------|-------|-------|-------|-------*||-------|| 
-------|-------|-------|-------|-------|-------|-------*||-------|| 
-------|-------|-------|-------|-------|-------|--------||-------|| 
-------|-------|-------|-------|-------|-------|--------||-------|| 


                                    Arrival                                      


                                                                 ProtoShredanoid 
Slap Guitar 



D#||--------|-------|-------|-------|-------|-------|-------|-------|-------| 
A#||--------|-------|-------|-------|-------|-------|-------|-------|-------| 
F#||*-------|-------|-------|-------|-------|-------|-------|-------|-------| 
C#||*-------|-------|-------|-------|-------|-------|-------|-------|-------| 
G#||--------|-------|-------|-------|-------|-------|-------|-------|-------| 
C#||--------|-------|-------|-------|-------|-------|-------|-------|-------| 


-------|-------|-------|-------|-------|-------|-------| 
-------|-------|-------|-------|-------|-------|-------| 
-------|-------|-------|-------|-------|-------|-------| 
-------|-------|-------|-------|-------|-------|-------| 
-------|-------|-------|-------|-------|-------|-------| 
-------|-------|-------|-------|-------|-------|-------| 


  S     P   P       P        P   S      P   P S      P   P S       P    
              |-3-|    |-3-|                               |--3--|      
  T T T T T T T T T S  T T T E   T  T T T T T T  T T T T T T  T  T S    
----------------------------------------------------------------------| 
----------------------------------------------------------------------| 
----------------------------------------------------------------------| 
------x-3---3--------------x----------x------------x------------------| 
----------------x---5~---x---4~---------3---3--------1---1---------0~-| 
--0-x-----x---x---x----x---------3h-5-----x---2h-3-----x---0h-1h-2----| 


  S     P   P       P        P   S      P   P S      P   P S       P    
              |-3-|    |-3-|                               |--3--|      
  T T T T T T T T T S  T T T E   T  T T T T T T  T T T T T T  T  T S    
----------------------------------------------------------------------| 
----------------------------------------------------------------------| 
----------------------------------------------------------------------| 
------x-3---3--------------x----------x------------x------------------| 
----------------x---5~---x---4~---------3---3--------1---1---------0~-| 
--0-x-----x---x---x----x---------3h-5-----x---2h-3-----x---0h-1h-2----| 


  S     P   P       P        P   S      P   P S      P   P S       P    
              |-3-|    |-3-|                               |--3--|      
  T T T T T T T T T S  T T T E   T  T T T T T T  T T T T T T  T  T S    
----------------------------------------------------------------------| 
----------------------------------------------------------------------| 
----------------------------------------------------------------------| 
------x-3---3--------------x----------x------------x------------------| 
----------------x---5~---x---4~---------3---3--------1---1---------0~-| 
--0-x-----x---x---x----x---------3h-5-----x---2h-3-----x---0h-1h-2----| 


  S     P   P       P        P   S      P   P S      P   P S       P    
              |-3-|    |-3-|                               |--3--|      
  T T T T T T T T T S  T T T E   T  T T T T T T  T T T T T T  T  T S    
----------------------------------------------------------------------| 
----------------------------------------------------------------------| 
----------------------------------------------------------------------| 
------x-3---3--------------x----------x------------x------------------| 
----------------x---5~---x---4~---------3---3--------1---1---------0~-| 
--0-x-----x---x---x----x---------3h-5-----x---2h-3-----x---0h-1h-2----| 


  W                                         
--------------------||-------------------|| 
--------------------||-------------------|| 
-------------------*||-------------------|| 
-------------------*||-------------------|| 
--------------------||-------------------|| 
--0-----------------||-------------------|| 




Duration Legend 
--------------- 
W - whole 
H - half 
Q - quarter 
E - 8th 
S - 16th 
T - 32nd 
X - 64th 
. - note dotted 
|-n-|  - n-tuplets 


Tablature Legend 
---------------- 
L - tied note 
x - dead note 
g - grace note 
(n) - ghost note 
> - accentuded note 
NH - natural harmonic 
AH - artificial harmonic 
TH - tapped harmonic 
SH - semi harmonic 
PH - pitch harmonic 
h - hammer on 
p - pull off 
b - bend 
br - bendRelease 
pb - preBend 
pbr - preBendRelease 
brb - bendReleaseBend 
\n/ - tremolo bar dip 
\n - tremolo bar dive 
-/n - tremolo bar Release up 
/n\ - tremolo bar inverted dip 
/n - tremolo bar return 
-\n - tremolo bar Release down 
S - shift slide 
s - legato slide 
/ -  slide into from below or out of upwards 
\ -  slide into from above or out of downwards 
~ - vibrato 
W - wide vibrato 
tr - trill 
TP - tremolo picking 
T - tapping 
S - slap 
P - pop 
< - fade in 
^ - brush up 
v - brush down 
    	

enviado porenviado por: carlluz
cifra enviadaCorrigida por: sem correções
logo top cifrasComente
ico música do artistaMúsicas deste artista
ico curtiuCurtiu?
ico destaqueDestaque
Petaxxon Comunicação Online

Cifras.com.br - Melhor e mais completo site de cifras e tablaturas do Brasil Mais de 1 milhão de acordes de músicas cadastradas desde 2003
As informações contidas no nosso site são colaborações de seus usuários e podem conter erros, sendo assim, não nos responsabilizamos sobre nenhuma destas.

close
menos
mais
close
Cor dos acordes:

Cor da letra:

close
Alinhar acordes a direita Alinhar acordes a esquerda Alinhar acordes em baixo Alinhar acordes no topo
close
  Mostrar todos os acordes Esconder acordes muito fáceis Esconder acordes fáceis Esconder acordes intermediários
redimensionar
glossário