Cifras e Tablaturas
ProtoShredanoid

ProtoShredanoid

Moonbeam

Cifras Cancelar Versão de Impressão
cifras

ProtoShredanoid - Moonbeam

fixar na tela  
Exibindo: vídeo-aula ver clipes redimensionar
  

      <                      NH      NH      NH      NH 
      W                      Q       Q       Q       Q 
e||---7----------------|--<>12----------------------------------| 
B||--10----------------|----------<>12--------------------------| 
G||---7----------------|--------------------------<>12----------| 
D||---9----------------|------------------<>12------------------| 
A||---7----------------|----------------------------------------------| 
E||--------------------|----------------------------------------------| 

      NH          NH 
      H           H             Q         S S S S E   E   H 
e|--------------------------------|--------||---------7-L--------------------------| 
B|--------------------------------|--------||--------------10---L------------------| 
G|--------------------------------|--------||*------7------------------------------| 
D|--------------------------------|--------||*----9--------------------------------| 
A|--<>7---------------------|--------||---7----------------------------------| 
E|-------------<>12~--------|---L----||--------------------------------------| 

                                                         NH 
    S S S S E  E   H           S S S S E   E   E    E    Q 
e|--------------------------|--------7-L------------------------------| 
B|--------8-L--7---L--------|-------------10---L--/15-----------------| 
G|------9-------------------|------7-------------------<>7------| 
D|----7---------------------|----9------------------------------------| 
A|--5-----------------------|--7--------------------------------------| 
E|--------------------------|-----------------------------------------| 

    S S S S E  E    H           S S S S E  E   E   E  Q 
e|---------------------------|--------3-L-------------------| 
B|--------8-L--7~---L--------|-------------5---L--/7--7~----| 
G|------9--------------------|------4-----------------------| 
D|----7----------------------|----5-------------------7-----| 
A|--5------------------------|--3---------------------------| 
E|---------------------------|------------------------------| 

                                                           NH 
    S S S S E  E   E   E  Q        S S S S E  E   E   E    Q 
e|--------2-L-------------------|--------3-L-----------------------------| 
B|-------------3---Lp--5--5~----|-------------5---L--/7--<>7~------| 
G|------2-----------------------|------4---------------------------------| 
D|----4-------------------------|----5---------------/7--<>7-------| 
A|--2---------------------------|--3-------------------------------------| 
E|------------------------------|----------------------------------------| 

    S S S S E  E   Q       S  S S  S S S  S S S S 
e|--------2-L-----------|--7p-5------0------------| 
B|-------------3~--L----|-------8p-7--------0-----| 
G|------2---------------|--------------7s-5-----0-| 
D|----4-----------------|---------------------7---| 
A|--2-------------------|-------------------------| 
E|----------------------|-------------------------| 

        NH  NH  NH 
    S   S   S   S E  E   E    E  Q        S S S  S  E  E   E    E  Q 
e|----------------L--------------------------|------------L----------10------------------| 
B|------------<>7--------L-------8~----|--------10--L--8---Lp------7~--------------| 
G|--------<>7--------9------/11--------|------7------------------------------------| 
D|----<>7------------------------------|----7--------------------------------------| 
A|-------------------------------------------|-------------------------------------------| 
E|--8----------------------------------------|--7----------------------------------------| 

    S S S S E  E   E   E  Q        S S S S E  E   E   E  Q     H          4x 
e|--------3-L-------------------|--------2-L------------------------------|| 
B|-------------5---L--/7--7~----|-------------3---Lp--L--L~----5~---------|| 
G|------4-----------------------|------2---------------------------------*|| 
D|----5-------------------7-----|----4-----------------------------------*|| 
A|--3---------------------------|--2--------------------------------------|| 
E|------------------------------|-----------------------------------------|| 


Duration Legend 

************************************ 

W - whole 
H - half 
Q - quarter 
E - 8th 
S - 16th 

************************************ 

| p  Pull-off 
| /  Slide up 
| ~  Vibrato 
| s  Slide 
| < - fade in 
| L - tied note 
| n  tremolo bar 

************************************ 
  

top 5 | protoshredanoid
top rock'n roll
Outras músicas do artista letras do(a) ProtoShredanoid
Top cifras »Top artistas »
Petaxxon Comunicação Online
Cifras.com.br - Melhor e mais completo site de cifras e tablaturas do Brasil
Mais de 1 milhão de acordes de músicas cadastradas desde 2003
As informações contidas no nosso site são colaborações de seus usuários e podem conter erros, sendo assim, não nos responsabilizamos sobre nenhuma destas.
close
menos
mais
close
Cor dos acordes:

Cor da letra:

 

save
close
close
 
redimensionar