Cifras e Tablaturas
Pvris

Pvris

Anyone Else

Cifras Cancelar Versão de Impressão

Pvris - Anyone Else

Tom: Em

  			
Intro (0:00-0:07) No Guitar 


verse 1 (0:08-0:39) "All my blood..." 

D|--------------------| 
A|--------------------| 
F|--------------------| x4 
C|-4---6-8--8---8-13--| 
G|-6---8-9--9---9-14--| 
C|--------------------| 


Pre-Chorus 1 (0:40-1:11) "Cause I could touch..." 

D|-------------------------| 
A|-------------------------| 
F|-------------------------| 
C|-4---6-8--8---8-13-11/13-| 
G|-6---8-9--9---9-14-------| 
C|-------------------------| 

D|--------------------| 
A|--------------------| 
F|--------------------| 
C|-4---6-8--8---8-13--| 
G|-6---8-9--9---9-14--| 
C|--------------------| 

Rest 0:56-1:11 "I don't belong to Anyone Else..." 


Chorus 1 (1:11-1:28) 

D|--------------------------------------------| 
A|--------------------------------------------| 
F|--------------------------------------------| x2 
C|---4---4---4---8---8---8---8---8/--13---11--| 
G|-6---6---6---9---9---9---9---9--/--14-14----| 
C|--------------------------------------------| 


verse 2 (1:29-2:00) "All my blood..."   This verse has layered guitars, 
                                          so that's why there are 3 guitars 

Guitar 1 (Main Riff, played whole verse) 
D|--------------------| 
A|--------------------| 
F|--------------------| 
C|-4---6-8--8---8-13--| 
G|-6---8-9--9---9-14--| 
C|--------------------| 

Guitar 2 (Second Riff, played whole verse) This one is to be slightly tremolo picked 

D|-------------------------------------------------------------------------| 
A|-------------------------------------------------------------------------| 
F|-11-11-11-11-11-11-11-11-13-13-13-13-15-15-15-15-15-15-15-15-13-13-13-13-| 
C|-------------------------------------------------------------------------| 
G|-------------------------------------------------------------------------| 
C|-------------------------------------------------------------------------| 

Guitar 3 (Third Riff, played from 1:44-2:00) 

D|----------------------------------------------------------| 
A|----------------------------------------------------------| 
F|----------------------------------------------------------| 
C|-13-13-13-13-13h14-13-16-16-16-15-16-15-16-15-13p11-13-11-| 
G|----------------------------------------------------------| 
C|----------------------------------------------------------| 


Pre-Chorus 2 (2:01-2:15) "I don't belong to Anyone Else..." 

D|-------------------------------------------------------------------------| 
A|-------------------------------------------------------------------------| 
F|-11-11-11-11-11-11-11-11-13-13-13-13-15-15-15-15-15-15-15-15-13-13-13-13-| Tremolo this riff 
C|-------------------------------------------------------------------------|    slightly 
G|-------------------------------------------------------------------------| 
C|-------------------------------------------------------------------------| 


Chorus 2 (2:16-2:48) 

Guitar 1 
D|--------------------------------------------| 
A|--------------------------------------------| 
F|--------------------------------------------| x4 
C|---4---4---4---8---8---8---8---8/--13---11--| 
G|-6---6---6---9---9---9---9---9--/--14-14----| 
C|--------------------------------------------| 

Guitar 2 
D|-------------------------------------------------------------------------| 
A|-------------------------------------------------------------------------| 
F|-11-11-11-11-11-11-11-11-13-13-13-13-15-15-15-15-15-15-15-15-13-13-13-13-| Tremolo this riff 
C|-------------------------------------------------------------------------|    slightly 
G|-------------------------------------------------------------------------| 
C|-------------------------------------------------------------------------| 

Guitar 3 (2:32-2:48) Low Output 
D|----------------------------------------------------------| 
A|----------------------------------------------------------| 
F|----------------------------------------------------------| 
C|-13-13-13-13-13h14-13-16-16-16-15-16-15-16-15-13p11-13-11-| 
G|----------------------------------------------------------| 
C|----------------------------------------------------------| 


Bridge/Outro (2:48-4:35) 

Guitar 2 
D|----------------------------| 
A|----------------------------| 
F|----------------------------| 
C|----------------------------| 
G|-9---14-13-9---16-14-13--9--| 
C|----------------------------| 

Rest 2:58-3:19 

3:20-3:54 "I don't belong to Anyone Else.." 
Guitar 1 
D|--------------------------------------------| 
A|--------------------------------------------| 
F|--------------------------------------------| x4 
C|---4---4---4---8---8---8---8---8/----1------| 
G|-6---6---6---9---9---9---9---9--/--2---2----| 
C|--------------------------------------------| 

Guitar 2 
D|-------------------------------------------------------------------------| 
A|-------------------------------------------------------------------------| 
F|-11-11-11-11-11-11-11-11-13-13-13-13-15-15-15-15-15-15-15-15-13-13-13-13-| Tremolo this riff 
C|-------------------------------------------------------------------------|    slightly 
G|-------------------------------------------------------------------------| 
C|-------------------------------------------------------------------------| 

Rest 3:55-4:35 


************************************ 

| h   Hammer-on 
| p   Pull-off 
| /   Slide up 
| \   Slide down 

************************************ 
    	
fixar
fixar inscrever-se

enviado porenviado por: gustsilva
cifra enviadaCorrigida por: sem correções
logo top cifrasComente
ico música do artistaMúsicas deste artista
ico curtiuCurtiu?
ico destaqueDestaque
Petaxxon Comunicação Online

Cifras.com.br - Melhor e mais completo site de cifras e tablaturas do Brasil Mais de 1 milhão de acordes de músicas cadastradas desde 2003
As informações contidas no nosso site são colaborações de seus usuários e podem conter erros, sendo assim, não nos responsabilizamos sobre nenhuma destas.

close
menos
mais
close
Cor dos acordes:

Cor da letra:

close
Alinhar acordes a direita Alinhar acordes a esquerda Alinhar acordes em baixo Alinhar acordes no topo
close
  Mostrar todos os acordes Esconder acordes muito fáceis Esconder acordes fáceis Esconder acordes intermediários
redimensionar
glossário