Cifras e Tablaturas
Queen

Queen

Bohemian Rhapsody Tablatura Verificada

Ano: 1975
Album : Classic Queen
Compositor : (Freddie Mercury)

Cifras Cancelar Versão de Impressão
cifras

Queen - Bohemian Rhapsody

fixar na tela  
Exibindo: vídeo-aula ver clipes redimensionar

Tom:

  
Base Verse:  

e|-----------------------------------------|  
B|-----------------------------------------|  
G|-----------------------------------------|  
D|----------------------2\3--2--1---0------|  
A|----------5\6---5---3--------------------|  
E|-\5--4--3----------------------------\6--|  

Base Verse Solo:  

e|--------------------------------------------------|  
B|--------------------------------------------------|  
G|--------------------------------------------------|  
D|-----------2\3---2--1---0-------------------------|  
A|-\6--5--3-----------------------------\6---5---3--|  
E|----------------------------\8--------------------|  

e|---------------------------------------------------|  
B|---------------------------------------------------|  
G|---------------------------------------------------|  
D|-----------------------\3-2-1--0-----------------2-|  
A|-----------3--3p1----------------\4---4-3-2--1---0-|  
E|---4-3-2-3--------3p1------------------------------|  

Solo part 1:  

e|------------------------------------10-11----10-11------------------|  
B|---------------11-8-11b13-11b13-/13-------13------16b18-16p18-16p13-|  
G|----10b12r10p8------------------------------------------------------|  
D|-/8-----------------------------------------------------------------|  
A|--------------------------------------------------------------------|  
E|--------------------------------------------------------------------|  

e|----15-16-18-18b20-(18)r16-15-16-15h16p15---15-----------------------|  
B|-18--------------------------------------18----18-16-15-16-15h16p15--|  
G|---------------------------------------------------------------------|  
D|---------------------------------------------------------------------|  
A|---------------------------------------------------------------------|  
E|---------------------------------------------------------------------|  

e|------------------------------15-16-18-----------------15-16-18b20--|  
B|----15---------------15-16-18----------------15-16-18---------------|  
G|-17----17-15---15-17-------------------15-17------------------------|  
D|--------------------------------------------------------------------|  
A|--------------------------------------------------------------------|  
E|--------------------------------------------------------------------|  

e|--------------------------------------------------13----|  
B|---15-16-13-15-16-13-15-16-16b18-16b18------------------|  
G|-----------------------------------------10-12-13----13-|  
D|--------------------------------------------------------|  
A|--------------------------------------------------------|  
E|--------------------------------------------------------|  

e|-------------------------------|  
B|-14--14-14-14------------------|  
G|---------------\6---7p6p4------|  
D|---------------------------7---|  
A|-------------------------------|  
E|-------------------------------|  

Solo Part 2: Bb5  

e|------------------------------------------------------------------|  
B|------------------------------------------------------------------|  
G|------------------------------------------------------------------|  
D|-8-8--------------------------------------------------------------|  
A|-8-8--/6-------3-5-6----6--------3-----6-------3-5-6--8-------5---|  
E|-6-6-----3-4-6-------------3-4-6---6-----3-4-6----------5-6-8---8-|  

e|-----------------------------------------------------------------|  
B|-----------------------------------------------------------------|  
G|----8-8--------------------6------8-8--------------3-------------|  
D|-8--8-8--8--8p6h8-8p6----------8--8-8--6-----------3-/5p3--------|  
A|-8--6-6--8-------------8-4-----8--6-6--6-----------1------5p3--3-|  
E|-8-------6---------------------6-------4--4-3--1---------------1-|  

e|-------------------------------|  
B|-------------------------------|  
G|-3-----------------------------|  
D|-3-----3h5p3---------3-------3-|  
A|-1--/5-------5---3---1---3---1-|  
E|-----------------1-------1-----|  

Solo Part 3:  

e|----------------------------------------------------------------|  
B|----------------------------------------------------------------|  
G|----------------------------------------------------------------|  
D|----------------------------------------------------------------|  
A|---6-------3-5-6----6--------3-----6-------3-5-6-/8-------5-7-8-|  
E|-----3-4-6-------------3-4-6---6-----3-4-6----------5-6-8-------|  

e|---------------------------------------------------------------|  
B|---------------------------------------------------------------|  
G|----------------------------------------------------------9-10-|  
D|------------------10-------10-11----------------9-11-9-11------|  
A|-9-11-13----11-13------13---------------9-11-12----------------|  
E|----------------------------------11-12------------------------|  

e|-------------------------------------------------|  
B|---------------------------------------6---6-8-9-|  
G|---------------------3------5-7--5-7-8---8-------|  
D|-----------3-4-3-4-6------8----------------------|  
A|-----3-4-6---------------------------------------|  
E|-4-6---------------------------------------------|  

Solo 4:  

Guitar 1:  

e|---------------------------------------------------------------|  
B|-----8-11-------8--11b13---------------------------------------|  
G|---8----------8-----------7-8--7-10-8-10-12h13p12-14h15p14-\7--|  
D|-8---------10--------------------------------------------------|  
A|---------------------------------------------------------------|  
E|---------------------------------------------------------------|  

Guitar 2:  

e|-----------------------------------------------------------|  
B|--------------11-------------------------------------------|  
G|-----------10-----12-12---12-13-12--/7----10-8-11h12p11----|  
D|--------12----------------------------------------------12-|  
A|-----13----------------------------------------------------|  
E|-----------------------------------------------------------|  

Guitar 3:  

e|-/15-14---15-17-17b18-/8---8/10\6--8---8/10\6---|  
B|------------------------------------------------|  
G|------------------------------------------------|  
D|------------------------------------------------|  
A|------------------------------------------------|  
E|------------------------------------------------|  

Guitar 4:  

e|---------------------------|  
B|------/15---16-16-16---15--|  
G|---------------------------|  
D|---------------------------|  
A|---------------------------|  
E|---------------------------|  

End Music:  

e|---------------------------------|  
B|-11\9--9\8--8----8\5--------3/6--|  
G|----------------------5h3/2------|  
D|---------------------------------|  
A|---------------------------------|  
E|---------------------------------|  


  

cifra enviadacorrigido por:Acelot
enviado porenviada por:Paulo__
top 5 | queen
top rock'n roll
Outras músicas do artista letras do(a) Queen
Top cifras »Top artistas »
Petaxxon Comunicação Online
Cifras.com.br - Melhor e mais completo site de cifras e tablaturas do Brasil
Mais de 1 milhão de acordes de músicas cadastradas desde 2003
As informações contidas no nosso site são colaborações de seus usuários e podem conter erros, sendo assim, não nos responsabilizamos sobre nenhuma destas.
close
menos
mais
close
Cor dos acordes:

Cor da letra:

 

save
close
close
 
redimensionar