Cifras e Tablaturas
Queen

Queen

Killer Queen

Ano: 1974
Album : Greatest Hits
Compositor : (Mercury)

Cifras Cancelar Versão de Impressão Print

Queen - Killer Queen

Tom:

  			solo... tá mais ou menos...  



E-------------------------------------------  
B--8b--8r--6\5-------10-11-8-10--6\5--------  
G---------------7-7-------------------7-7---  
D-------------------------------------------  
A-------------------------------------------  
E-------------------------------------------  
  
E------------------------------------------- 
B-6b-6--8-4\3--------8--6----4-------------- 
G--------------5-5----8---7----7--5~--------  
D-------------------------------------------  
A-------------------------------------------  
E-------------------------------------------  

E------------------------------------------- 
B-----3/8-8------3/8-8-8-9-10~-10/13-13----- 
G-----3/8-8------3/8-8---------------------- 
D-3-3--------3-3---------------------------- 
A------------------------------------------- 
E------------------------------------------- 

  
E-------------13-13----11------------------- 
B-11\10-------------15-----15-13---10/13-13- 
G-------12-12------------------------------- 
D-------------------------------------------  
A-------------------------------------------  
E-------------------------------------------  

  
E------------------------------------------- 
B-11/10--------15-15-12-15-13-16-14-17-15--- 
G-------12-12------------------------------- 
D-------------------------------------------  
A-------------------------------------------  
E-------------------------------------------  

E------------------------------------------- 
B--18-16-19/20-20-18-18-16-18-20-21--20-18-- 
G-------------------------------------------  
D-------------------------------------------  
A-------------------------------------------  
E-------------------------------------------  

E------------------------------------------- 
B-16-12-17-15-11-11-15-11-18/20-20-18------- 
G-------------------------------------------  
D-------------------------------------------  
A-------------------------------------------  
E-------------------------------------------  

E------------------------------------------- 
B-18/20--20-20-20-20/21--------------------- 
G-------------------------------------------  
D-------------------------------------------  
A-------------------------------------------  
E------------------------------------------- 


    	

enviado porenviado por: Jekinha2
cifra enviadaCorrigida por: sem correções
logo top cifrasComente
ico música do artistaMúsicas deste artista
ico curtiuCurtiu?
ico destaqueDestaque
Petaxxon Comunicação Online

Cifras.com.br - Melhor e mais completo site de cifras e tablaturas do Brasil Mais de 1 milhão de acordes de músicas cadastradas desde 2003
As informações contidas no nosso site são colaborações de seus usuários e podem conter erros, sendo assim, não nos responsabilizamos sobre nenhuma destas.

close
menos
mais
close
Cor dos acordes:

Cor da letra:

close
Alinhar acordes a direita Alinhar acordes a esquerda Alinhar acordes em baixo Alinhar acordes no topo
close
  Mostrar todos os acordes Esconder acordes muito fáceis Esconder acordes fáceis Esconder acordes intermediários
redimensionar
glossário