Cifras e Tablaturas
Queensrÿche

Queensrÿche

Silent Lucidity Tablatura Verificada

Compositor : (Chris DeGarmo)

Cifras Cancelar Versão de Impressão
cifras

Queensrÿche - Silent Lucidity

fixar na tela  
Exibindo: vídeo-aula ver clipes redimensionar

Tom:

  


Intro: 

e|----7-----7------5-----5-----5---7-----7-----5-----5-----5--| 
B|------0-----0------0-----0---------0-----0-----0-----0------| 
G|------------------------------------------------------------| 
D|-5------5-----5------5-----5---5-----5-----5-----5-----5----| 
A|------------------------------------------------------------| 
E|------------------------------------------------------------| 

e|----2-----2----------------------2-----2---------------------| 
B|------0-----0---3-----3-----3------0-----0---3-----3-----3---| 
G|------------------0-----0----------------------0-----0-----0-| 
D|-2------2-----2-----2-----2---2------2-----2-----2-----2-----| 
A|-------------------------------------------------------------| 
E|-------------------------------------------------------------| 

Verse:  

e|----7-----7------5-----5-----5---| 
B|------0-----0------0-----0-----0-| 
G|---------------------------------| 
D|-5------5-----5------5-----5-----| 
A|---------------------------------| 
E|---------------------------------|(2x) 

e|----2-----2----------------------2-----2---------------------| 
B|------0-----0---3-----3-----3------0-----0---3-----3-----3---| 
G|------------------0-----0----------------------0-----0-----0-| 
D|-2------2-----2-----2-----2---2------2-----2-----2-----2-----| 
A|-------------------------------------------------------------| 
E|-------------------------------------------------------------| 

e|----7-----7------5-----5-----5---| 
B|------0-----0------0-----0-----0-| 
G|---------------------------------| 
D|-5------5-----5------5-----5-----| 
A|---------------------------------| 
E|---------------------------------|(2x) 


e|----2-----2----------------------2-----2---------------------| 
B|------0-----0---3-----3-----3------0-----0---3-----3-----3---| 
G|------------------0-----0----------------------0-----0-----0-| 
D|-2------2-----2-----2-----2---2------2-----2-----2-----2-----| 
A|-------------------------------------------------------------| 
E|-------------------------------------------------------------| 

e|----------------------------------| 
B|-----5-----5------3-----3-----3---| 
G|-------0-----0------0-----0-----0-| 
D|----------------------------------| 
A|-3-------3-----3------3-----3-----| 
E|----------------------------------| (2x) 

e|----------------------------------| 
B|-----5-----5------3-----3-----3---| 
G|-------0-----0------0-----0-----0-| 
D|----------------------------------| 
A|-0-------0-----0------0-----0-----| 
E|----------------------------------| (2x) 

e|----------------------------------| 
B|-----5-----5------3-----3-----3---| 
G|-------0-----0------0-----0-----0-| 
D|----------------------------------| 
A|-3-------3-----3------3-----3-----| 
E|----------------------------------| (2x) 

e|-----------------------------| 
B|-----5-----5-----3-----3---3-| 
G|-------0-----0-----0-----0-0-| 
D|---------------------------5-| 
A|-0-------0-----0-----0-------| 
E|-----------------------------| 


Verse: Guitar 2 

e|-------|-------------------------------| 
B|-------|-------------------------------| 
G|-----0-|---4-----4-----2-----2-----2---| 
D|-0h2---|-----0-----0-----0-----0-----0-| 
A|-------|-------------------------------| 
E|-------|-3-----3-----3-----3-----3-----| (2x) 

e|----2-----2---------------------| 
B|------0-----0---3-----3-----3---| 
G|------------------0-----0-----0-| 
D|--------2-----2-----2-----2-----| 
A|--------------------------------| 
E|-0------------------------------| (2x) 

Verse:  

e|----7-----7------5-----5-----5---| 
B|------0-----0------0-----0-----0-| 
G|---------------------------------| 
D|-5------5-----5------5-----5-----| 
A|---------------------------------| 
E|---------------------------------|(2x) 

e|----2-----2----------------------2-----2---------------------| 
B|------0-----0---3-----3-----3------0-----0---3-----3-----3---| 
G|------------------0-----0----------------------0-----0-----0-| 
D|-2------2-----2-----2-----2---2------2-----2-----2-----2-----| 
A|-------------------------------------------------------------| 
E|-------------------------------------------------------------| 

e|----7-----7------5-----5-----5---| 
B|------0-----0------0-----0-----0-| 
G|---------------------------------| 
D|-5------5-----5------5-----5-----| 
A|---------------------------------| 
E|---------------------------------|(2x) 


e|----2-----2----------------------2-----2---------------------| 
B|------0-----0---3-----3-----3------0-----0---3-----3-----3---| 
G|------------------0-----0----------------------0-----0-----0-| 
D|-2------2-----2-----2-----2---2------2-----2-----2-----2-----| 
A|-------------------------------------------------------------| 
E|-------------------------------------------------------------| 

e|----------------------------------| 
B|-----5-----5------3-----3-----3---| 
G|-------0-----0------0-----0-----0-| 
D|----------------------------------| 
A|-3-------3-----3------3-----3-----| 
E|----------------------------------| (2x) 

e|----------------------------------| 
B|-----5-----5------3-----3-----3---| 
G|-------0-----0------0-----0-----0-| 
D|----------------------------------| 
A|-0-------0-----0------0-----0-----| 
E|----------------------------------| (2x) 

e|----------------------------------| 
B|-----5-----5------3-----3-----3---| 
G|-------0-----0------0-----0-----0-| 
D|----------------------------------| 
A|-3-------3-----3------3-----3-----| 
E|----------------------------------| (2x) 

e|-----------------------------------------------------| 
B|-----5-----5-----3-----3-----3---------5-----5-----3-| 
G|-------0-----0-----0-----0-----0---------0-----0---0-| 
D|-----------------------------------------------------| 
A|-0-------0-----0-----0-----0------0--------0-----0---| 
E|-----------------------------------------------------| 


Chorus: 

e|----0-----2-----3-----5-----0-----5-----3-----2-| 
B|----3-----3-----3-----3-----3-----3-----3-----3-| 
G|------------------------------------------------| 
D|-0-----0-----0-----0----------------------------| 
A|-------------------------3-----3-----3-----3----| 
E|------------------------------------------------| 

e|----0-----2-----3-----5-----0-----7-----5-----3-| 
B|----3-----3-----3-----3-----3-----5-----5-----5-| 
G|------------------------------------------------| 
D|-0-----0-----0-----0----------------------------| 
A|-------------------------3-----3-----3-----3----| 
E|------------------------------------------------| 

e|----0-----2-----3-----5-----0-----5-----3-----2-| 
B|----3-----3-----3-----3-----3-----3-----3-----3-| 
G|------------------------------------------------| 
D|-0-----0-----0-----0----------------------------| 
A|-------------------------3-----3-----3-----3----| 
E|------------------------------------------------| 

e|----0-----2-----3-----5--3--------------------| 
B|----3-----3-----3-----3--3--------3/5-3-1---1-| 
G|-------------------------0------0-3/5-4-0---0-| 
D|-0-----0-----0-----0-----2----------------2---| 
A|-------------------------3--------------------| 
E|----------------------------------------------| 


Base Solo: Eb Eb(sus2) Eb Eb(sus2) C(sus2) C C(sus2) C Bb Ab5  Eb/G F5 Eb5 Bb5/D C5  Bb5 Ab5 G5  

e|--------------------------------| 
B|---8------8-----6-----6-----6---| 
G|-----8------8-----8-----8-----8-| 
D|-------8------8-----8-----8-----| 
A|-6------------------------------| 
E|--------------------------------| (2x) 

e|-------------------------------| 
B|---3-----3-----5-----5-----5---| 
G|-----5-----5-----5-----5-----5-| 
D|-------5-----5-----5-----5-----| 
A|-3-----------------------------| 
E|-------------------------------| (2x) 


Solo: Eb Eb(sus2) Eb Eb(sus2) C(sus2) C C(sus2) C Bb Ab5  Eb/G F5 Eb5 Bb5/D C5  Bb5 Ab5 G5  


e|---------------------------------------------------------| 
B|---------------------------------------------------------| 
G|-8--10b12r10~~~--(12b15)r12--10b12-12\10--8\3--3/5~~~~---| 
D|---------------------------------------------------------| 
A|---------------------------------------------------------| 
E|---------------------------------------------------------| 

e|----------------------------------------------------------| 
B|----------------------------------------------------------| 
G|---5---5~~~~~---5/7\5~~~-----8---10b12r10~~~---(12b15)r12-| 
D|-5---5----------------------------------------------------| 
A|----------------------------------------------------------| 
E|----------------------------------------------------------| 

e|--------------------------------|---------------|----------| 
B|--------------------------------|---------------|----------| 
G|-10b12-10---8\3-5/7-7b9r7-5~~~~-|-7-7b6r7-5~~~~-|--4~~~~---| 
D|--------------------------------|---------------|----------| 
A|--------------------------------|---------------|----------| 
E|--------------------------------|---------------|----------| 
                                              (8x) 
End:  


e|----7-----7-----5-----5-----5-----|----7-------7-| 
B|------0-----0-----0-----0-----0---|------0---0---| 
G|----------------------------------|--------------| 
D|-5------5-----5-----5-----5-------|-5------5-----| 
A|----------------------------------|--------------| 
E|----------------------------------|--------------| 

  

cifra enviadacorrigido por:Acelot
enviado porenviada por:Xande de Paraty
top 5 | queensrÿche
top
Outras músicas do artista letras do(a) Queensrÿche
Top cifras »Top artistas »
Petaxxon Comunicação Online
Cifras.com.br - Melhor e mais completo site de cifras e tablaturas do Brasil
Mais de 1 milhão de acordes de músicas cadastradas desde 2003
As informações contidas no nosso site são colaborações de seus usuários e podem conter erros, sendo assim, não nos responsabilizamos sobre nenhuma destas.
close
menos
mais
close
Cor dos acordes:

Cor da letra:

 

save
close
close
 
redimensionar