Cifras e Tablaturas
Radwimps

Radwimps

25 Kome No Senshokutai (intro)

Cifras Cancelar Versão de Impressão
cifras

Radwimps - 25 Kome No Senshokutai (intro)

fixar na tela  
Exibindo: vídeo-aula ver clipes redimensionar

Tom:

  
E|---------0----------------0---------------0-------0-------0--------| 
B|-----3-------3--------3-------3-------3-------3-------3-------3----| 
G|---2---2---2---2----2---2---2---2---2---2---2---2---2---2---2---2--| 
D|-0-----------------------------------------------------------------| 
A|------------------4---------------2--------------------------------| 
E|-------------------------------------------------------------------| 


E|--------0---------------0----------------0-------0-------0---------| 
B|----3-------3-------3-------3--------3-------3-------3-------3-----| 
G|--2---2---2---2---2---2---2---2----2---3---2---2---2---2---2---2---| 
D|-------------------------------------------------------------------| 
A|---------------------------------0---------------------------------| 
E|-3--------------2--------------------------------------------------| 
  

top 5 | radwimps
top rock'n roll
Outras músicas do artista letras do(a) Radwimps
Top cifras »Top artistas »
Petaxxon Comunicação Online
Cifras.com.br - Melhor e mais completo site de cifras e tablaturas do Brasil
Mais de 1 milhão de acordes de músicas cadastradas desde 2003
As informações contidas no nosso site são colaborações de seus usuários e podem conter erros, sendo assim, não nos responsabilizamos sobre nenhuma destas.
close
menos
mais
close
Cor dos acordes:

Cor da letra:

 

save
close
close
 
redimensionar