Cifras e Tablaturas
Rainbow

Rainbow

Long Live Rock N' Roll Tablatura Verificada

Ano: 1978
Album : Live in Munich 1977
Compositor : (Ritchie Blackmore / Ronnie James Dio)

Cifras Cancelar Versão de Impressão
cifras

Rainbow - Long Live Rock N' Roll

fixar na tela  
Exibindo: vídeo-aula ver clipes redimensionar

Tom:

  Riff 1 (chorus)  

e|-------------------------------------------------------------------| 
B|-------------------------------------------------------------------| 
G|---------5-3H5p3---3-3-3------5-3h5p3---3-3------5-3h5p3---3-3-3---| 
D|---------5-3-----5-3-3-3-5----5-3-----5-3-3-5~~--5-3-----5-3-3-3-5-| 
A|-3-4---------------------------------------------------------------| 
E|-1-2---3--------------------3-------------------3------------------| 

e|----------------| 
B|----------------| 
G|----------------| 
D|3/5-------------| 
A|----5-3-1-------| 
E|----------3-1-2-| 

Riff 2 (part A): 

e|-----------------     |-------------------|-----------------     |--------| 
B|-----------------     |-------------------|-----------------     |--------| 
G|-----------------(3x) |---------3b--------|-----------------(3x) |--------| 
D|-----5-----5-3---     |-----5p3----5-3----|-----5-----5-3---     |-----5--| 
A|---------------5-     |----------------5--|---------------5-     |--------| 
E|-3-3---3-3-------     |-3-3---------------|-3-3---3-3-------     |-3-3----| 

Riff 3 (pre-chorus): 

e|----------------------------------------------| 
B|----------------------------------------------| 
G|----------------------------------------------| 
D|-------------------------------1-0---------3--| 
A|---0-1--0--------0--3-1-0----------3-1--------| 
E|-3--------3-1--3----------3------------3-3----| 

e|------------------------------------------------------------| 
B|------------------------------------------------------------| 
G|------------------------------------------------------------| 
D|------------------------------------------------------------| 
A|---0-1--0--------0--3-1-0-----------------------------------| 
E|-3--------3-1--3----------3---1-1-1-1-1-1-1-1-1-1-1-1-1-1-1-| 


Riff 1 (chorus)  

e|-------------------------------------------------------------------| 
B|-------------------------------------------------------------------| 
G|---------5-3H5p3---3-3-3------5-3h5p3---3-3------5-3h5p3---3-3-3---| 
D|---------5-3-----5-3-3-3-5----5-3-----5-3-3-5~~--5-3-----5-3-3-3-5-| 
A|-3-4---------------------------------------------------------------| 
E|-1-2---3--------------------3-------------------3------------------| 

Interlude: 

e|-------------------      |-----------------------------------------------| 
B|-------------------      |-----------------------------------------------| 
G|------------------- (3x) |-----------------------------------------------| 
D|----5-5-5----5-5-5-      |5-5-5-4-4-4-3-3-3-2-2-2-1-1-1-0-0-0------------| 
A|-------------------      |-----------------------------------4-4-4-3-3-3-| 
E|-3-3------3-3------      |-----------------------------------------------| 

e|---------------------------------------| 
B|---------------------------------------| 
G|---------------------------------------| 
D|---------------------------------------| 
A|---------------------------------------| 
E|-3-3-3-3-3-3-3-3-3-3-3-3-3-3-3-3-3-3-3-| 

Riff: (7X) 

e|------------------| 
B|------------------| 
G|------------------| 
D|-----5-----5-3----| 
A|---------------5--| 
E|-3-3---3-3--------| 

Base solo: 

e|-------------------------------------------------------------------| 
B|-------------------------------------------------------------------| 
G|-------------------------------------------------------------------| 
D|-----5-----5-3--------5--------------------------------1-3-----5---| 
A|---------------5------------0-1--0-------0--3-1-0------------------| 
E|-3-3---3-3--------3-3-----3--------3-1--3---------3--------3-3-----| 

e|-------------------------------------------------------------------| 
B|-------------------------------------------------------------------| 
G|-------------------------------------------------------------------| 
D|-------------------------------------------------------------------| 
A|---0-1--0--------0--3-1-0------------------------------------------| 
E|-3--------3-1--3----------3---1-1-1-1-1-1-1-1-1-1-1-1-1-1-1-1-1-1--| 

chorus: 

e|----------------------------------------------------------------------| 
B|----------------------------------------------------------------------| 
G|---------5-3h5p3---3-3-3------5-3h5p3---3-3---------5-3h5p3---3-3-3---| 
D|---------5-3-----5-3-3-3-5----5-3-----5-3-3-5~~-----5-3-----5-3-3-3-5-| 
A|-3-4------------------------------------------------------------------| 
E|-1-2--3-3------------------3-3------------------3-3-------------------| 

e|----------------------------------------------------------| 
B|----------------------------------------------------------| 
G|----------------------------------------------------------| 
D|----------------------------------------------------------| 
A|----------------------------------------------------------| 
E|-1-1-1-1-1-1-1-1-1-1-1-1-1-1-1-1-1-1----------------------| 

e|----------------------------------------------------------------------| 
B|----------------------------------------------------------------------| 
G|---------5-3h5p3---3-3-3------5-3h5p3---3-3---------5-3h5p3---3-3-3---| 
D|---------5-3-----5-3-3-3-5----5-3-----5-3-3-5~~-----5-3-----5-3-3-3-5-| 
A|-3-4------------------------------------------------------------------| 
E|-1-2--3-3------------------3-3------------------3-3-------------------| 

e|-----------------------| 
B|-----------------------| 
G|-----------------------| 
D|-----------------------| 
A|-----------------------| 
E|-1--1--1--1--1--1--1---| 

Interlude Solo: 

Guitar 1: 
e|5/6-----6-----6-----6-----6-----6----| 
B|-----8-----8-----8-----8-----8-----8-| 
G|-------------------------------------| 
D|-------------------------------------| 
A|-------------------------------------| 
E|-------------------------------------| (3x) 



Guitar 1 
e|-6---6--7---7--8----8--9----9--10----10--11----11--12----12--13---13-| 
B|---8------9------10------11-------12--------13--------14--------15---| 
G|---------------------------------------------------------------------| 
D|---------------------------------------------------------------------| 
A|---------------------------------------------------------------------| 
E|---------------------------------------------------------------------| 

e|-13b15-13b15-13b15-13b15-13b15-13b15-13b15--| 
B|--------------------------------------------| 
G|--------------------------------------------| 
D|--------------------------------------------| 
A|--------------------------------------------| 
E|--------------------------------------------| 

Guitar 2: 
e|9/10----10----10----10----10----10----| 
B|-----11----11----11----11----11----11-| 
G|--------------------------------------| 
D|--------------------------------------| 
A|--------------------------------------| 
E|--------------------------------------| (3x) 

e|9/10----10-11---11-12---12-13---13-14--14--15---15-16---16-17---17--| 
B|-----11------12------13------14------15------16------17------18-----| 
G|--------------------------------------------------------------------| 
D|--------------------------------------------------------------------| 
A|--------------------------------------------------------------------| 
E|--------------------------------------------------------------------| 

e|-17b18-17b18-17b18-17b18-17b18-17b18-17b18-| 
B|-------------------------------------------| 
G|-------------------------------------------| 
D|-------------------------------------------| 
A|-------------------------------------------| 
E|-------------------------------------------| 

Solo: 

e|-13b15-13-10-----------------------------------------------| 
B|-------------13-13b15r13p11-13b15-13b15r13p11------11------| 
G|------------------------------------------------12----12~~-| 
D|-----------------------------------------------------------| 
A|-----------------------------------------------------------| 
E|-----------------------------------------------------------| 

e|--------------------------------------------------------------------| 
B|-11----8-11p8----8-11p8----8-11p8----8-11p8----8-11p8----8----------| 
G|----10--------10--------10--------10--------10--------10---10b12~~~-| 
D|--------------------------------------------------------------------| 
A|--------------------------------------------------------------------| 
E|--------------------------------------------------------------------| 

e|-----------------------8----8h10p8---7/8---8---------------------13b15-| 
B|8----8-11p8----8-10/11---11--------11---11--11-13-13b15r13p11--11------| 
G|--10--------10-----------------------------------------------12--------| 
D|-----------------------------------------------------------------------| 
A|-----------------------------------------------------------------------| 
E|-----------------------------------------------------------------------| 

e|13-10------10-------------------------------------------------| 
B|-----13b15----13-11-13-11-------------------------------------| 
G|--------------------------12-11-10----10-12p10----10-12-10-12-| 
D|-----------------------------------12----------12-------------| 
A|--------------------------------------------------------------| 
E|--------------------------------------------------------------| 

e|-------------------| 
B|11-----------------| 
G|---12-12-10b11-12--| 
D|-------------------| 
A|-------------------| 
E|-------------------| 

e|--------------------------------------------------| 
B|3---3-------------------------------------13b15~~-| 
G|--6---6p5p3-5-----12-10-12-10b12-10----10---------| 
D|--------------5~~-------------------12------------| 
A|--------------------------------------------------| 
E|--------------------------------------------------| 

e|---------------------------------------------| 
B|13b15r13b15r13b15r13b15r13b15-13b15r13p11----| 
G|------------------------------------------12-| 
D|---------------------------------------------| 
A|---------------------------------------------| 
E|---------------------------------------------| 

e|-13b15r13-13-10-------------------------13b15-| 
B|----------------13b15r13p11-13b15r13p11-------| 
G|----------------------------------------------| 
D|----------------------------------------------| 
A|----------------------------------------------| 
E|----------------------------------------------| 


  

top 5 | rainbow
top heavy metal
Outras músicas do artista letras do(a) Rainbow
Top cifras »Top artistas »
Petaxxon Comunicação Online
Cifras.com.br - Melhor e mais completo site de cifras e tablaturas do Brasil
Mais de 1 milhão de acordes de músicas cadastradas desde 2003
As informações contidas no nosso site são colaborações de seus usuários e podem conter erros, sendo assim, não nos responsabilizamos sobre nenhuma destas.
close
menos
mais
close
Cor dos acordes:

Cor da letra:

 

save
close
close
 
redimensionar