Cifras e Tablaturas
Real Friends

Real Friends

Get By

Cifras Cancelar Versão de Impressão
cifras

Real Friends - Get By

fixar na tela  
Exibindo: vídeo-aula ver clipes redimensionar

Tom:

  
Intro 
e|---------------------------------------------------------------------------| 
B|---------------------------------------------------------------------------| 
G|------6-6-6-6------------------------6-6-6-6-------------------------------| 
D|---------------7-7-7-------------------------7-7-7-------------------------| 
A|-5-5------------------9-9-9-----5-5----------------9-9-9----2-2---5-5------| 
E|------------------------------------------------------------0-0---2-2------| 

Verse 
e|---------------------------------------------------------------------------| 
B|---------------------------------------------------------------------------| 
G|------6-6-6-6------------------------6-6-6-6-------------------------------| 
D|---------------7-7-7-------------------------7-7-7-------------------------| 
A|-5-5------------------9-9-9-----5-5----------------9-9-9-------------------| 
E|---------------------------------------------------------------------------| 

e|---------------------------------------------------------------------------| 
B|---------------------------------------------------------------------------| 
G|---------------------------------------------------------------------------| 
D|---------------------------------------------------------------------------| 
A|-7/9-9-9-9-9--9\7-7-7-7-7--7/5--5-5---7/9-9-9-9-9--9\7-7-7-7-7--7/5--5-5---| 
E|---------------------------------------------------------------------------| 

e|---------------------------------------------------------------------------| 
B|---------------------------------------------------------------------------| 
G|------6-6-6-6------------------------6-6-6-6-------------------------------| 
D|---------------7-7-7-------------------------7-7-7-------------------------| 
A|-5-5------------------9-9-9-----5-5----------------9-9-9-------------------| 
E|---------------------------------------------------------------------------| 

e|---------------------------------------------------------------------------| 
B|---------------------------------------------------------------------------| 
G|---------------------------------------------------------------------------| 
D|---------------------------------------------------------------------------| 
A|-7/9-9-9-9-9--9\7-7-7-7-7--7/5--5-5---7/9-9-9-9-9--9\7-7-7--2--2---5--5----| 
E|------------------------------------------------------------0--0---2--2----| 

e|---------------------------------------------------------------------------| 
B|------7---------7--------7-------7----10------7-------7-------7------------| 
G|------7---------6--------7-------7--9---------7-------6-------7------------| 
D|--0-0-------0-0------0-0-----0-0----------0-0-----0-0-----0-0--------------| 
A|---------------------------------------------------------------------------| 
E|---------------------------------------------------------------------------| 

Chorus 
e|-------------------------------------------------------------------------------------------| 
B|-------------------------------------------------------------------------------------------| 
G|-2--2---2--4--4---4---------------------------2--2---2--4--4---4---------------------------| 
D|-2--2---2--4--4---4--5--5--5--5-5--5--5-5--5--2--2---2--4--4---4--5--5--5--5-5--5--5-5--5--| 
A|-0--0---0--2--2---2--5--5--5--5-5--5--5-5--5--0--0---0--2--2---2--5--5--5--5-5--5--5-5--5--| 
E|---------------------3--3--3--3-3--3--3-3--3----------------------3--3--3--3-3--3--3-3--3--| 

e|-------------------------------------------------------------------------------------------| 
B|-------------------------------------------------------------------------------------------| 
G|-2--2---2--4--4---4---------------------------2--2---2--4--4---4---------------------------| 
D|-2--2---2--4--4---4--5--5--5--5-5--5--5-5--5--2--2---2--4--4---4--2----------5-------------| 
A|-0--0---0--2--2---2--5--5--5--5-5--5--5-5--5--0--0---0--2--2---2--2----------5-------------| 
E|---------------------3--3--3--3-3--3--3-3--3----------------------0----------3-------------| 

Interlude 
e|---------------------------------------------------------------------------| 
B|---------------------------------------------------------------------------| 
G|------6-6-6-6------------------------6-6-6-6-------------------------------| 
D|---------------7-7-7-------------------------7-7-7-------------------------| 
A|-5-5------------------9-9-9-----5-5----------------9-9-9----2-2---5-5------| 
E|------------------------------------------------------------0-0---2-2------| 

verse 2 
e|---------------------------------------------------------------------------| 
B|---------------------------------------------------------------------------| 
G|---------------------------------------------------------------------------| 
D|-7-7-7-7--7-7-7-7--7-7-7-7--7-7-7-7----------------------------------------| 
A|-5-5-5-5--5-5-5-5--5-5-5-5--5-5-5-5--5-5-5-5--5-5-5-5--5-5-5-5--5-5-5-5----| 
E|-------------------------------------3-3-3-3--3-3-3-3--3-3-3-3--3-3-3-3----| 

e|---------------------------------------------------------------------------| 
B|---------------------------------------------------------------------------| 
G|---------------------------------------------------------------------------| 
D|-7-7-7-7--7-7-7-7--7-7-7-7--7-7-7-7----------------------------------------| 
A|-5-5-5-5--5-5-5-5--5-5-5-5--5-5-5-5--5-5-5-5--5-5-5-5--5----2--2---5--5----| 
E|-------------------------------------3-3-3-3--3-3-3-3--3----0--0---2--2----| 

e|---------------------------------------------------------------------------| 
B|---------------------------------------------------------------------------| 
G|------6-6-6-6------------------------6-6-6-6-------------------------------| 
D|---------------7-7-7-------------------------7-7-7-------------------------| 
A|-5-5------------------9-9-9-----5-5----------------9-9-9-------------------| 
E|---------------------------------------------------------------------------| 

e|---------------------------------------------------------------------------| 
B|---------------------------------------------------------------------------| 
G|---------------------------------------------------------------------------| 
D|---------------------------------------------------------------------------| 
A|-7/9-9-9-9-9--9\7-7-7-7-7--7/5--5-5---7/9-9-9-9-9--9\7-7-7-----------------| 
E|---------------------------------------------------------------------------| 

Chorus 
e|-------------------------------------------------------------------------------------------| 
B|-------------------------------------------------------------------------------------------| 
G|-2--2---2--4--4---4---------------------------2--2---2--4--4---4---------------------------| 
D|-2--2---2--4--4---4--5--5--5--5-5--5--5-5--5--2--2---2--4--4---4--5--5--5--5-5--5--5-5--5--| 
A|-0--0---0--2--2---2--5--5--5--5-5--5--5-5--5--0--0---0--2--2---2--5--5--5--5-5--5--5-5--5--| 
E|---------------------3--3--3--3-3--3--3-3--3----------------------3--3--3--3-3--3--3-3--3--| 

e|-------------------------------------------------------------------------------------------| 
B|-------------------------------------------------------------------------------------------| 
G|-2--2---2--4--4---4---------------------------2--2---2--4--4---4---------------------------| 
D|-2--2---2--4--4---4--5--5--5--5-5--5--5-5--5--2--2---2--4--4---4--2----------5-------------| 
A|-0--0---0--2--2---2--5--5--5--5-5--5--5-5--5--0--0---0--2--2---2--2----------5-------------| 
E|---------------------3--3--3--3-3--3--3-3--3----------------------0----------3-------------| 

Bridge 
e|-----------------------------------------------------------------------------| 
B|-----------------------------------------------------------------------------| 
G|-11--14----11---------12---7--9------11--14----11-------12---7--9---9-9-9-9--| 
D|-----------------------------------------------------------------------------| 
A|-9---12----9----------10---5--7------9---12----9--------10---5--7---7-7-7-7--| 
E|-----------------------------------------------------------------------------| 

e|---------------------------------------------------------------------------| 
B|---------------------------------------------------------------------------| 
G|-11--14----11----11-11-11-11-11-9-9-9--12---7--9---6-6-6-6-6-7-7-7---------| 
D|-----------------0--0--0--0--0--0-0-0--------------0-0-0-0-0-0-0-0---------| 
A|-9---12----9---------------------------10---5--7---------------------------| 
E|---------------------------------------------------------------------------| 

e|---------------------------------------------------------------------------| 
B|---------------------------------------------------------------------------| 
G|-11--14----11---7-7-7-7-7-9-9-9---12---7--9--9-9-9-9-----------------------| 
D|----------------0-0-0-0-0-0-0-0--------------------------------------------| 
A|-9---12----9----------------------10---5--7--7-7-7-7-----------------------| 
E|---------------------------------------------------------------------------| 

e|---------------------------------------------------------------------------| 
B|---------------------------------------------------------------------------| 
G|------6-6-6-6------------------------6-6-6-6-------------------------------| 
D|---------------7-7-7-------------------------7-7-7-------------------------| 
A|-5-5------------------9-9-9-----5-5----------------9-9-9-------------------| 
E|---------------------------------------------------------------------------| 

e|---------------------------------------------------------------------------| 
B|---------------------------------------------------------------------------| 
G|---------------------------------------------------------------------------| 
D|---------------------------------------------------------------------------| 
A|-7/9-9-9-9-9--9\7-7-7-7-7--7/5--5-5---7/9-9-9-9-9--9\7-7-7-----------------| 
E|---------------------------------------------------------------------------| 

e|---------------------------------------------------------------------------| 
B|--10-------10------7------7b8r7-----10-------10-----7-------7--------------| 
G|-----7---7----7------7-----------------7---7----7-----7---7---7------------| 
D|---------------------------------------------------------------------------| 
A|---------------------------------------------------------------------------| 
E|---------------------------------------------------------------------------| 

Chorus 
e|-------------------------------------------------------------------------------------------| 
B|-------------------------------------------------------------------------------------------| 
G|-2--2---2--4--4---4---------------------------2--2---2--4--4---4---------------------------| 
D|-2--2---2--4--4---4--5--5--5--5-5--5--5-5--5--2--2---2--4--4---4--5--5--5--5-5--5--5-5--5--| 
A|-0--0---0--2--2---2--5--5--5--5-5--5--5-5--5--0--0---0--2--2---2--5--5--5--5-5--5--5-5--5--| 
E|---------------------3--3--3--3-3--3--3-3--3----------------------3--3--3--3-3--3--3-3--3--| 

e|-------------------------------------------------------------------------------------------| 
B|-------------------------------------------------------------------------------------------| 
G|-2--2---2--4--4---4---------------------------2--2---2--4--4---4---------------------------| 
D|-2--2---2--4--4---4--5--5--5--5-5--5--5-5--5--2--2---2--4--4---4--2----------5-------------| 
A|-0--0---0--2--2---2--5--5--5--5-5--5--5-5--5--0--0---0--2--2---2--2----------5-------------| 
E|---------------------3--3--3--3-3--3--3-3--3----------------------0----------3-------------| 

************************************ 

| r   Release 
| b   Bend 
| /   Slide up 
| \   Slide down 

************************************ 
  

top 5 | real friends
top rock'n roll
Outras músicas do artista letras do(a) Real Friends
Top cifras »Top artistas »
Petaxxon Comunicação Online
Cifras.com.br - Melhor e mais completo site de cifras e tablaturas do Brasil
Mais de 1 milhão de acordes de músicas cadastradas desde 2003
As informações contidas no nosso site são colaborações de seus usuários e podem conter erros, sendo assim, não nos responsabilizamos sobre nenhuma destas.
close
menos
mais
close
Cor dos acordes:

Cor da letra:

 

save
close
close
 
redimensionar