Cifras e Tablaturas
Reckless Love

Reckless Love

Romance

Cifras Cancelar Versão de Impressão
cifras

Reckless Love - Romance

fixar na tela  
Exibindo: vídeo-aula ver clipes redimensionar

Tom:

  E|-4------4---------4-------4--------------------| 
B|--4--5----6---7----4--5-----6----7-------------| 
G|---4-------6--------4---------6----------------| 
D|-----------------------------------------------| 
A|-----------------------------------------------| 
E|-----------------------------------------------| 


Verso 

E|-------------------------------------------------------------------------------------------------- 
B|-------------------------------------------------------------------------------------------------- 
G|-7-7---2-XX-5-XX-5-X-5-XX-7-XX-7-X-2-XX-5-XX-5-X-5-XX-7-XX-7-X-2-XX-5-XX-5-X-5-XX-7-XX-7-X-2-XX--- 
D|-5-5---2-XX-3-XX-3-X-5-XX-5-XX-5-X-2-XX-3-XX-3-X-5-XX-5-XX-5-X-2-XX-3-XX-3-X-5-XX-5-XX-5-X-2-XX--- 
A|-------------------------------------------------------------------------------------------------- 
E|-------------------------------------------------------------------------------------------------- 


Pré-Refrão 

E|------------------------------------------------------------------------------------| 
B|------------------------------------------------------------------------------------| 
G|-5-XX-5-X-5-XX-7-X--77/-5-------7------------------------------5------5--7---44-----| 
D|-3-XX-3-X-5-XX-5-X--55/-3-------5---------------------------------7---3--5---22-----| 
A|------------------------------------------------3-------5--7------------------------| 
E|-----------------------------------\--5--3---5--------------------------------------| 


Refrão 

E|------------------------------------------------------------------------------| 
B|------------------------------------------------------------------------------| 
G|-------5---7---------------------5--7--------------5--7------------5--(5)-----| 
D|-2-----3---5-----------------2---3--5-----------2--3--5------------3--(3)-----| 
A|-o----------------3-2--------0---------3-2------0--------3-2------------------| 
E|----------------------5-3------------------5-3---------------5-3--------------| 


Verso 

E|-------------------------------------------------------------------------------------------------- 
B|-------------------------------------------------------------------------------------------------- 
G|-7-7---2-XX-5-XX-5-X-5-XX-7-XX-7-X-2-XX-5-XX-5-X-5-XX-7-XX-7-X-2-XX-5-XX-5-X-5-XX-7-XX-7-X-2-XX--- 
D|-5-5---2-XX-3-XX-3-X-5-XX-5-XX-5-X-2-XX-3-XX-3-X-5-XX-5-XX-5-X-2-XX-3-XX-3-X-5-XX-5-XX-5-X-2-XX--- 
A|-------------------------------------------------------------------------------------------------- 
E|-------------------------------------------------------------------------------------------------- 


Pré-Refrão 

E|------------------------------------------------------------------------------------| 
B|------------------------------------------------------------------------------------| 
G|-5-XX-5-X-5-XX-7-X--77/-5-------7------------------------------5------5--7---44-----| 
D|-3-XX-3-X-5-XX-5-X--55/-3-------5---------------------------------7---3--5---22-----| 
A|------------------------------------------------3-------5--7------------------------| 
E|-----------------------------------\--5--3---5--------------------------------------| 


Refrão 

E|------------------------------------------------------------------------------| 
B|------------------------------------------------------------------------------| 
G|-------5---7---------------------5--7--------------5--7------------5--(5)-----| 
D|-2-----3---5-----------------2---3--5-----------2--3--5------------3--(3)-----| 
A|-o----------------3-2--------0---------3-2------0--------3-2------------------| 
E|----------------------5-3------------------5-3---------------5-3--------------| 
  

top 5 | reckless love
top rock'n roll
Outras músicas do artista letras do(a) Reckless Love
Top cifras »Top artistas »
Petaxxon Comunicação Online
Cifras.com.br - Melhor e mais completo site de cifras e tablaturas do Brasil
Mais de 1 milhão de acordes de músicas cadastradas desde 2003
As informações contidas no nosso site são colaborações de seus usuários e podem conter erros, sendo assim, não nos responsabilizamos sobre nenhuma destas.
close
menos
mais
close
Cor dos acordes:

Cor da letra:

 

save
close
close
 
redimensionar