Cifras e Tablaturas
Red Fang

Red Fang

Reverse Thunder

Cifras Cancelar Versão de Impressão
cifras

Red Fang - Reverse Thunder

fixar na tela  
Exibindo: vídeo-aula ver clipes redimensionar
  
Intro 0:00: 

     1 + 2 + 3 + 4 + 1 + 2 + 3 + 4 + 1 + 2 + 3 + 4 + 1 + 2 + 3 + 4 +  
e|-------------------------------------------------------------------|\ 
B|---------------------3-------------------------------3-------------| \ 
G|-0h2-----------2-----------2-------2-----------2-----------2-------|  \ 
D|-------------------------------0-------------------------------0---|   \ 
A|--------3--------------------------------3-------------------------|    \ 
E|-------------------------------------------------------------------|     \ 
                                                                            2x 
     1 + 2 + 3 + 4 + 1 + 2 + 3 + 4 + 1 + 2 + 3 + 4 + 1 + 2 + 3 + 4 +        / 
e|-------------------------------------------------------------------|     / 
B|---------3-------------------------------3-----------3-------------|    / 
G|---2-----------2-----------2-------2-----------2-----------2-------|   / 
D|-------------------------------0-------------------------------0---|  / 
A|---------------------1---------------------------------------------| / 
E|-------------------------------------------------------------------|/ 

Lead ~0:20 
     1  +  2  +  3  +  4  +  1  +  2  +  3  +  4  +  1  +  2  +  3  +  4  +  1  +  2  +  3  +  4  +  
e|--------------------------------------------------------------------------------------------------| 
B|------------3-----------------3--------------3--------------3-----------------3--------------3--1-| 
G|-0h2--2--2-----------2--2--2-----------0--2--------2--2--2-----------2--2--2-----------0--2-------| 
D|--------------------------------------------------------------------------------------------------| 
A|--------------------------------------------------------------------------------------------------| 
E|--------------------------------------------------------------------------------------------------| 

Rhythm under lead ~0:20 
     1  +  2  +  3  +  4  +  1  +  2  +  3  +  4  +  1  +  2  +  3  +  4  +  1  +  2  +  3  +  4  +  
e|--------------------------------------------------------------------------------------------------| 
B|--------------------------------------------------------------------------------------------------| 
G|--------------------------------------------------------------------------------------------------| 
D|---0-----0--3-----3--5-----5--8-----8--8--10-12-10-0-----0--3-----3--5-----5--8-----8--8--10-12-10| 
A|---0-----0--3-----3--5-----5--8-----8--8--10-12-10-0-----0--3-----3--5-----5--8-----8--8--10-12-10| 
E|---0-----0--3-----3--5-----5--8-----8--8--10-12-10-0-----0--3-----3--5-----5--8-----8--8--10-12-10| 

The section aboves is played twice, on the second time the pattern stops on beat 4 with the lead bending the 
note, basically listen for the difference right before the vocals come in. 

"Verse?" ~0:28 
     1  +  2  +  3  +  4  +  1  +  2  +  3  +  4  +  1  +  2  +  3  +  4  +  1  +  2  +  3  +  4  +  
e|--------------------------------------------------------------------------------------------------|\ 
B|--------------------------------------------------------------------------------------------------| \ 
G|--------------------------------------------------------------------------------------------------|  \ 
D|---12-------3-----3--5-----5--8-----8--8--10-12-10-12-------3-----3--5-----5--8-----8--8--10-12-10|  4x 
A|---12-------3-----3--5-----5--8-----8--8--10-12-10-12-------3-----3--5-----5--8-----8--8--10-12-10| / 
E|---12-------3-----3--5-----5--8-----8--8--10-12-10-12-------3-----3--5-----5--8-----8--8--10-12-10|/ 


"Chorus?" ~0:50 
                  "You're in hell, but you cant even tell!" 

     1  +  2  +  3  +  4  +  1  +  2  +  3  +  4  +  1  +  2  +  3  +  4  +  1  +  2  +  3  +  4  +  
e|--------------------------------------------------------------------------------------------------|\ 
B|--------------------------------------------------------------------------------------------------| \ 
G|--------------------------------------------------------------------------------------------------|  \ 
D|---7-----7--7--7--7--7--7--7--7--7--7--7--7--7--7--x--10-------5-----5--------10-------5--7--5----|  4x 
A|---5-----5--5--5--5--5--5--5--5--5--5--5--5--5--5--x--8--------3-----3--------8--------3--5--3----| / 
E|---0-----0--0--0--0--0--0--0--0--0--0--0--0--0--0--x--------0-----------------------0-------------|/ 

"Verse?" ~1:14 
     1  +  2  +  3  +  4  +  1  +  2  +  3  +  4  +  1  +  2  +  3  +  4  +  1  +  2  +  3  +  4  +  
e|--------------------------------------------------------------------------------------------------|\ 
B|--------------------------------------------------------------------------------------------------| \ 
G|--------------------------------------------------------------------------------------------------|  \ 
D|---12-------3-----3--5-----5--8-----8--8--10-12-10-12-------3-----3--5-----5--8-----8--8--10-12-10|  4x 
A|---12-------3-----3--5-----5--8-----8--8--10-12-10-12-------3-----3--5-----5--8-----8--8--10-12-10| / 
E|---12-------3-----3--5-----5--8-----8--8--10-12-10-12-------3-----3--5-----5--8-----8--8--10-12-10|/ 

at this point in the song 1:38ish, it goes into another lead + rhythm part similar to the intro, it is very 
similar except for there are multiple lead lines. 


"Chorus?" back in a around 2:00 

                  "You're in hell, but you cant even tell!" 

     1  +  2  +  3  +  4  +  1  +  2  +  3  +  4  +  1  +  2  +  3  +  4  +  1  +  2  +  3  +  4  +  
e|--------------------------------------------------------------------------------------------------|\ 
B|--------------------------------------------------------------------------------------------------| \ 
G|--------------------------------------------------------------------------------------------------|  \ 
D|---7-----7--7--7--7--7--7--7--7--7--7--7--7--7--7--x--10-------5-----5--------10-------5--7--5----|  4x 
A|---5-----5--5--5--5--5--5--5--5--5--5--5--5--5--5--x--8--------3-----3--------8--------3--5--3----| / 
E|---0-----0--0--0--0--0--0--0--0--0--0--0--0--0--0--x--------0-----------------------0-------------|/ 

"Outro?" 
     1  +  2  +  3  +  4  +  1  +  2  +  3  +  4  +  1  +  2  +  3  +  4  +  1  +  2  +  3  +  4  +  
e|--------------------------------------------------------------------------------------------------|\ 
B|--------------------------------------------------------------------------------------------------| \ 
G|--------------------------------------------------------------------------------------------------|  \ 
D|---9-----9--9--9--9--9--9--9--3--5--3--5--6--5--3--9-----9--9--9--9--9--9--9--3--5--3--5--6--5--3-|  2x 
A|---9-----9--9--9--9--9--9--9--3--5--3--5--6--5--3--9-----9--9--9--9--9--9--9--3--5--3--5--6--5--3-| / 
E|---9-----9--9--9--9--9--9--9--3--5--3--5--6--5--3--9-----9--9--9--9--9--9--9--3--5--3--5--6--5--3-|/ 

    "Black    cold     eyes!!" 
   (Souls     of       fire!!") 
     1  +  2  +  3  +  4  +  1  +  2  +  3  +  4  +  1  +  2  +  3  +  4  +  1  +  2  +  3  +  4  +  
e|--------------------------------------------------------------------------------------------------| 
B|--------------------------------------------------------------------------------------------------| 
G|--------------------------------------------------------------------------------------------------| 
D|---9-----9--9--9--9--9--9--9--3--5--3--5--6--5--3--9-----9--9--9--9--9--9--9--3--5--3--5--6--5--3-| 
A|---9-----9--9--9--9--9--9--9--3--5--3--5--6--5--3--9-----9--9--9--9--9--9--9--3--5--3--5--6--5--3-|  
E|---9-----9--9--9--9--9--9--9--3--5--3--5--6--5--3--9-----9--9--9--9--9--9--9--3--5--3--5--6--5--3-| 

    "Dark     red      sky!!" 
    (????????????????????????) 
     1  +  2  +  3  +  4  +  1  +  2  +  3  +  4  +  1  +  2  +  3  +  4  +  1  +  2  +  3  +   
e|--------------------------------------------------------------------------------------------| 
B|--------------------------------------------------------------------------------------------| 
G|--------------------------------------------------------------------------------------------|   
D|---9-----9--9--9--9--9--9--9--3--5--3--5--6--5--3--9--9--9--10----7-----9-----10----9--9--9-| 
A|---9-----9--9--9--9--9--9--9--3--5--3--5--6--5--3--9--9--9--10----7-----9-----10----9--9--9-| 
E|---9-----9--9--9--9--9--9--9--3--5--3--5--6--5--3--9--9--9--10----7-----9-----10----9--9--9-| 

Outro is played twice, then it goes into a short solo, which is basically a variant of the intro melody/pattern 
and then ends on a C#. Well hopefully this is close, it sounds decent enough when i play it, not sure about the  
lyrics but whatever. Let me know if anything is glaringly wrong, especially with the rhythms, not sure if they 
are accurate but it seems to reflect the song well, enjoy. 
************************************ 

| /   slide up 
| \   slide down 
| h   hammer-on 
| p   pull-off 
| ~   vibrato 
| +   harmonic 
| x   Mute note 
| b   Bend 
| pb  Pre-bend 
| br  Bend release 
| pbr Pre-bend release 
| brb Bend release bend 

************************************ 
  

cifra enviadasem correções
enviado porenviada por:jov-correa
top 5 | red fang
top heavy metal
Outras músicas do artista letras do(a) Red Fang
Top cifras »Top artistas »
Petaxxon Comunicação Online
Cifras.com.br - Melhor e mais completo site de cifras e tablaturas do Brasil
Mais de 1 milhão de acordes de músicas cadastradas desde 2003
As informações contidas no nosso site são colaborações de seus usuários e podem conter erros, sendo assim, não nos responsabilizamos sobre nenhuma destas.
close
menos
mais
close
Cor dos acordes:

Cor da letra:

 

save
close
close
 
redimensionar