Cifras e Tablaturas
Red

Red

Chasing Your Echo

Cifras Cancelar Versão de Impressão
cifras

Red - Chasing Your Echo

fixar na tela  
Exibindo: vídeo-aula ver clipes redimensionar

Tom:

  
Intro 

D|------------------|----------------|----------------|----------------------| 
A|------------------|----------------|----------------|----------------------| 
F|------------------|----------------|----------------|----------------------| 
C|------------------|----------------|----------------|----------------------|(x2) 
G|------------------|----------------|----------------|---------3--3---------| 
C|----0~--0~--0-0--8|--0~--0~--0-0--0|--0~--0~--0-0--8|--0h4-4-4-------------| 


verse 1, Part One (until "escaping), low volume 

D|-------------|-----------|-------------------------------------------------| 
A|-------------|-----------|-------------------------------------------------| 
F|-------------|-----------|-------------------------------------------------| 
C|-------------|-----------|-------------------------------------------------|(x4) 
G|-------------|-----------|-------------------------------------------------| 
C|----0~--0~--8|--0~--0~--0|-------------------------------------------------| 


verse 1, Part Two (from "escaping" to ends"), full volume 

D|----------------------------------|----------------------------------------| 
A|----------------------------------|----------------------------------------| 
F|----------------------------------|----------------------------------------| 
C|----------------------------------|----------------------------------------|(x2) 
G|----------------------------------|---------3-3----------------------------| 
C|----0~--0~--0~--0~--0~--0~--0~--0~|--0h4-4-4-------------------------------| 


Pre-Chorus 1, low volume 

D|--------------|---------------|------------|-------------------------------| 
A|--------------|---------------|------------|-------------------------------| 
F|--------------|---------------|------------|-------------------------------| 
C|----0~--0~--0~|--5-5-5---8-8-8|--3~--3~--3~|--7--7--7-7--------------------| 
G|----0~--0~--0~|--5-5-5-s-8-8-8|--3~--3~--3~|--7--7--7-7--------------------| 
C|----0~--0~--0~|--5-5-5---8-8-8|--3~--3~--3~|--7--7--7-7--------------------| 

Chorus 1, full volume 

D|-------------~|---------------|------------|-------------------------------| 
A|----3--3--3-3~|---------------|------------|-------------------------------| 
F|----2--2--2-2~|---------------|------------|-------------------------------| 
C|----0--0--0-0~|--5-5-5---8-8-8|--3--3--3-3~|--7--7--7-7--7-----------------|(x2) 
G|----0--0--0-0~|--5-5-5-s-8-8-8|--3--3--3-3~|--7--7--7-7--7-----------------| 
C|----0--0--0-0~|--5-5-5---8-8-8|--3--3--3-3~|--7--7--7-7--7-----------------| 


Turnaround 

D|------------------|----------------|----------------|----------------------| 
A|------------------|----------------|----------------|----------------------| 
F|------------------|----------------|----------------|----------------------| 
C|------------------|----------------|----------------|----------------------|(x2) 
G|------------------|----------------|----------------|---------3--3---------| 
C|----0~--0~--0-0--8|--0~--0~--0-0--0|--0~--0~--0-0--8|--0h4-4-4-------------| 


verse 2, comes in a few seconds before "desire breaks", low volume 

D|-------------|-----------|-------------------------------------------------| 
A|-------------|-----------|-------------------------------------------------| 
F|-------------|-----------|-------------------------------------------------| 
C|-------------|-----------|-------------------------------------------------|(x3) 
G|-------------|-----------|-------------------------------------------------| 
C|----0~--0~--8|--0~--0~--0|-------------------------------------------------| 


Chorus 2, full volume 

D|-------------~|---------------|------------|-------------------------------| 
A|----3--3--3-3~|---------------|------------|-------------------------------| 
F|----2--2--2-2~|---------------|------------|-------------------------------| 
C|----0--0--0-0~|--5-5-5---8-8-8|--3--3--3-3~|--7--7--7-7--7-----------------|(x2) 
G|----0--0--0-0~|--5-5-5-s-8-8-8|--3--3--3-3~|--7--7--7-7--7-----------------| 
C|----0--0--0-0~|--5-5-5---8-8-8|--3--3--3-3~|--7--7--7-7--7-----------------| 


Bridge, after "desire" and right when Mike screams "OBSESSION!" 

D|-------------|-------|---------|-----------|-------------------------------| 
A|-------------|-------|---------|-----------|-------|-----------------------| 
F|-------------|-------|---------|-----------|-------|-----------------------| 
C|----0-8-7-0-7|--0-3-6|--4-3-4-3|--0-8-7-0-7|--0-3-6|--4-3~--3-4------------|(x2) 
G|----0-8-7-0-7|--0-3-6|--4-3-4-3|--0-8-7-0-7|--0-3-6|--4-3~--3-4------------| 
C|----0-8-7-0-7|--0-3-6|--4-3-4-3|--0-8-7-0-7|--0-3-6|--4-3~--3-4------------| 


Pre-Chorus 2, low volume 

D|--------------|---------------|------------|-------------------------------| 
A|--------------|---------------|------------|-------------------------------| 
F|--------------|---------------|------------|-------------------------------| 
C|----0~--0~--0~|--5-5-5---8-8-8|--3~--3~--3~|--7--7--7-7--7-----------------| 
G|----0~--0~--0~|--5-5-5-s-8-8-8|--3~--3~--3~|--7--7--7-7--7-----------------| 
C|----0~--0~--0~|--5-5-5---8-8-8|--3~--3~--3~|--7--7--7-7--7-----------------| 


Final Chorus, full volume 

D|-----------------------|---------------|---------------------|-------------| 
A|----3~--3~--3~--3~--3-3|---------------|---------------------|-------------| 
F|----2~--2~--2~--2~--2-2|---------------|---------------------|-------------| 
C|----0~--0~--0~--0~--0-0|--5-5-5---8-8-8|--3~--3~--3~--3~--3-3|--7--7--7-7~-| 
G|----0~--0~--0~--0~--0-0|--5-5-5-s-8-8-8|--3~--3~--3~--3~--3-3|--7--7--7-7~-| 
C|----0~--0~--0~--0~--0-0|--5-5-5---8-8-8|--3~--3~--3~--3~--3-3|--7--7--7-7~-| 

D|-------------~|---------------|------------|-------------------------------| 
A|----3--3--3-3~|---------------|------------|-------------------------------| 
F|----2--2--2-2~|---------------|------------|-------------------------------| 
C|----0--0--0-0~|--5-5-5---8-8-8|--3--3--3-3~|--7--7--7-7--7-----------------| 
G|----0--0--0-0~|--5-5-5-s-8-8-8|--3--3--3-3~|--7--7--7-7--7-----------------| 
C|----0--0--0-0~|--5-5-5---8-8-8|--3--3--3-3~|--7--7--7-7--7-----------------| 

D|-------------------|---------------|-----------------|---------------------| 
A|----3--3--3--3--3-3|---------------|-----------------|---------------------| 
F|----2--2--2--2--2-2|---------------|-----------------|---------------------| 
C|----0--0--0--0--0-0|--5-5-5---8-8-8|--3--3--3--3--3-3|--7--7--7-7--7-------| 
G|----0--0--0--0--0-0|--5-5-5-s-8-8-8|--3--3--3--3--3-3|--7--7--7-7--7-------| 
C|----0--0--0--0--0-0|--5-5-5---8-8-8|--3--3--3--3--3-3|--7--7--7-7--7-------| 


Outro 

D|------------------|----------------|----------------|----------------------| 
A|------------------|----------------|----------------|----------------------| 
F|------------------|----------------|----------------|----------------------| 
C|------------------|----------------|----------------|----------------------|(x2) 
G|------------------|----------------|----------------|---------3--3---------| 
C|----0~--0~--0-0--8|--0~--0~--0-0--0|--0~--0~--0-0--8|--0h4-4-4-------------| 


************************************ 
| ~   Sustain 
| s   Slide 
| h   Hammer 
************************************ 
  

top 5 | red
top gospel
Outras músicas do artista letras do(a) Red
Top cifras »Top artistas »
Petaxxon Comunicação Online
Cifras.com.br - Melhor e mais completo site de cifras e tablaturas do Brasil
Mais de 1 milhão de acordes de músicas cadastradas desde 2003
As informações contidas no nosso site são colaborações de seus usuários e podem conter erros, sendo assim, não nos responsabilizamos sobre nenhuma destas.
close
menos
mais
close
Cor dos acordes:

Cor da letra:

 

save
close
close
 
redimensionar