Cifras e Tablaturas
Reflexion

Reflexion

Storm

Cifras Cancelar Versão de Impressão Print

Reflexion - Storm

Tom:

  • 0:00 / 0:00
  			Introdução: 

e|---------------------------------------------------------------------| 
b|---------------------------------------------------------------------| 
g|--6-------------6-------------3---3/4---6----3-----------------------| 
d|-----4-3--4--------4-3--4--------------------------------------------| 
a|------------------------------1---1/2---4----1-----------------------| 
E|---------------------------------------------------------------------| 

 Verso: 

F#                                 F 
 Memories running through your head 
D#m     					Bm 
 Alone and afraid there's monster under your bed 
C#5                          D# 
 Waiting for him to come home 

F#                                 F			D#m 
 The strangest feeling when darkness surrounds your mind 
					    Bm 
 Screaming pain when you turn out to be right 
 		    D#	                                     D 
 The sad story again, leaves you nothing but pain, all in vain 



Refrão: 
D#5  B5           F#5                 C#5 
 Storm in your heart, it tears you apart 
 D#5    B5            F#5 
 For so long you have wandered in dark 
                C#5 
 To find out the one who won't let you down 


{Repete Introdução} 

F#5           F5               D#5 

 Put your heart, back in the game 
B5  
 And you will lose it all over again 
  F#5                C#5                 D5 
 It's always the same, nothing but pain, all in vain 

{Refrão} 


{outra frescurinha do teclado q ficou muito legal} 

Agora o solo =D 

e|---------------------------------------------------------------------| 
b|--9/11---14/11---11-11-11\9--9-9-9/7--7-7-7\6----4-------------------| 
g|---------------------------------------------------------------------| 
d|---------------------------------------------------------------------| 
a|---------------------------------------------------------------------| 
E|---------------------------------------------------------------------| 


            
e|---------------------------------------------------------------------| 
b|---------------------------------------------------------------------| 
g|---------------------------------------------------------------------| 
d|--2/4----------------------------------------------------------------| 
a|-------4-4-6h-4p-6h-4p--6h/8---6-------------------------------------| 
E|---------------------------------------------------------------------| 



e|----------------------------------------------------16^16^-----------| 
b|--9/11---14/11---11-11-11/9--9-9-9/7--7-7-7\6-/-16-------------------| 
g|---------------------------------------------------------------------| 
d|---------------------------------------------------------------------| 
a|---------------------------------------------------------------------| 
E|---------------------------------------------------------------------| 


e|----------------------------11--11---12--12--------------------------| 
b|----------------------------14^-14^--15^-15^-------------------------| 
g|--3/4---4\3-4---4-3-4-6----------------------------------------------| 
d|---------------------------------------------------------------------| 
a|---------------------------------------------------------------------| 
E|---------------------------------------------------------------------| 

{Refrão} com a introdução terminando com B5 -- C#5 e: 

e|--12--12-------------------------------------------------------------| 
b|--15^-15^------------------------------------------------------------| 
g|---------------------------------------------------------------------| 
d|---------------------------------------------------------------------| 
a|---------------------------------------------------------------------| 
E|---------------------------------------------------------------------| 


Legenda:  

 / slide para frente 
 \ slide para tras 
 ^ Bend 
 h Hammer On 
 p Pull off 

    	

enviado porenviado por: allangiles
cifra enviadaCorrigida por: sem correções
logo top cifrasComente
ico música do artistaMúsicas deste artista
ico curtiuCurtiu?
ico destaqueDestaque
Petaxxon Comunicação Online

Cifras.com.br - Melhor e mais completo site de cifras e tablaturas do Brasil Mais de 1 milhão de acordes de músicas cadastradas desde 2003
As informações contidas no nosso site são colaborações de seus usuários e podem conter erros, sendo assim, não nos responsabilizamos sobre nenhuma destas.

close
menos
mais
close
Cor dos acordes:

Cor da letra:

close
Alinhar acordes a direita Alinhar acordes a esquerda Alinhar acordes em baixo Alinhar acordes no topo
close
  Mostrar todos os acordes Esconder acordes muito fáceis Esconder acordes fáceis Esconder acordes intermediários
redimensionar
glossário