Cifras e Tablaturas
Remo Drive

Remo Drive

Name Brand

Cifras Cancelar Versão de Impressão
cifras

Remo Drive - Name Brand

fixar na tela  
Exibindo: vídeo-aula ver clipes redimensionar

Tom:

  
Intro 
i play it with this rythym but you can just strum and play the notes and itll work 
(its only spaced out to be easier to read) 
e|---------------------------------------------------------------------------| 
B|---------------------------------------------------------------------------| 
G|---------------------------------------------------------------------------| (2 times) 
D|------ 666-----------------------------------------------------------------| 
A|777777---  99 7 666666------------------------------     ------------------| 
E-------------------     777 99 4 555555 5555 4 2 000000000000 --------------| 
            
Verse 
e|---------------------------------------------------------------------------| 
B|--4---4---4---4---4---4---4---4--------------------------------------------| 
G|--6---6---6---6---6---6---6---6--------------------------------------------| 
D|---------------------------------------------------------------------------| 
A|---------------------------------------------------------------------------| 
E|00-000-000-000-000-000-000-000-0-------------------------------------------| 

e|---------------------------------------------------------------------------| 
B|--4---4---4---4---5---5---5---5---6---6---6---6---6---6---6---6------------| 
G|--6---6---6---6---6---6---6---6---7---7---7---7---7---7---7---7------------| 
D|---------------------------------------------------------------------------| 
A|---------------------------------------------------------------------------| 
E|00-000-000-000-044-444-444-444-455-555-555-555-555-555-555-555-------------| 
  Who’s got money for all my needs..... 

e|-------------------------------------------------------------------------------------------| 
B|--44---44---44---44---55---55---55---55---66---66---66---66---66---66---66---66------------| 
G|--66---66---66---66---66---66---66---66---77---77---77---77---77---77---77---77------------| 
D|-------------------------------------------------------------------------------------------| 
A|-------------------------------------------------------------------------------------------| 
E|00--000--000--000--044--444--444--444--455--555--555--555--555--555--555--555--------------| 
  Irresponsibility is dear to me..... 

Bridge 
e|---------------------------------------------------------------------------| 
B|4-------5-------6-x16------------------------------------------------------| 
G|6-------6-------7 x16------------------------------------------------------| (x2) 
D|---------------------------------------------------------------------------| 
A|---------------------------------------------------------------------------| 
E|---------------------------------------------------------------------------| 
 I am a child who needs pleasing....... 

e|---------------------------------------------------------------------------| 
B|--44--44--44--44--44--44-4-4-4-4-------------------------------------------| 
G|--66--66--66--66--66--66-6-6-6-6-------------------------------------------| 
D|---------------------------------------------------------------------------| 
A|---------------------------------------------------------------------------| 
E|00--00--00--00--00--00--0-0-0-0--------------------------------------------| 

verse 2 
e|-------------------------------------------------------------------------------------------| 
B|--44---44---44---44---55---55---55---55---66---66---66---66---66---66---66---66------------| 
G|--66---66---66---66---66---66---66---66---77---77---77---77---77---77---77---77------------| 
D|-------------------------------------------------------------------------------------------| 
A|-------------------------------------------------------------------------------------------| 
E|00--000--000--000--044--444--444--444--455--555--555--555--555--555--555--555--------------| 
  Who’s got something really dirty...... 

e|---------------------------------------------------------------------------| 
B|4------5------6------------------------------------------------------------| 
G|6------6------7------------------------------------------------------------| 
D|--let it ring--------------------------------------------------------------| 
A|---------------------------------------------------------------------------| 
E|---------------------------------------------------------------------------| 
 Who’s got something really nasty......... 

Bridge 
e|---------------------------------------------------------------------------| 
B|4-------5-------6-x16------------------------------------------------------| 
G|6-------6-------7 x16------------------------------------------------------| (x4) 
D|---------------------------------------------------------------------------| 
A|---------------------------------------------------------------------------| 
E|---------------------------------------------------------------------------| 
  I am a child who has questions......... 

Chorus 
e|---------------------------------------------------------------------------| 
B|4-x8----5-x8----6-x16------------------------------------------------------| 
G|6-x8----6-x8----7-x16------------------------------------------------------| 
D|---------------------------------------------------------------------------| 
A|---------------------------------------------------------------------------| 
E|---------------------------------------------------------------------------| 
  Fendi Fendi Gucci........ 

e|---------------------------------------------------------------------------| 
B|4-x16----5-x16----9-x32----------------------------------------------------| 
G|6-x16----6-x16----7-x32----------------------------------------------------| 
D|---------------------------------------------------------------------------| 
A|---------------------------------------------------------------------------| 
E|---------------------------------------------------------------------------| 
  Fendi Fendi Gucci........ 

Guitar Solo 
e|---------------------------------------------------------------------------| 
B|---------------------------------------------------------------------------| 
G|---------------------------------------------------------------------------| 
D|6------22------66------22--------------------------------------------------| 
A|7--66--44--22--77--66--44--pm--222-----------------------------------------| 
E|---77------44------77----------444-----------------------------------------| 

e|---------------------------------------------------------------------------| 
B|---------------------------------------------------------------------------| 
G|---------------------------------------------------------------------------| 
D|6------22------66------22--------------------------------------------------| (3x)   
A|7--66--44--22--77--66--44--22----------------------------------------------| 
E|---77------44------77------44----------------------------------------------| 

Guitar 2 (guitar solo part) 
e|---------------------------------------------------------------------------| 
B|9 9b 9 7---12--10x2 9x4----------------------------------------------------| 
G|---------9-----------------------------------------------------------------| 
D|---------------------------------------------------------------------------| (x4)  
A|---------------------------------------------------------------------------| 
E|---------------------------------------------------------------------------| 

e|---------------------------------------------------------------------------| 
B|---------------------------------------------------------------------------| 
G|---------------------------------------------------------------------------| 
D|6--6--6--6--6--6-----------------------------------------------------------| 
A|7--7--7--7--7--7-----------------------------------------------------------| 
E|---------------------------------------------------------------------------| 

I know theres more to the song but I like ending it there if you want the rest let me know 
and ill work on it. 

Also this is the first tab ive ever made so be sure to let me know if i messed up anything. 


************************************ 

| x  Dead note 

************************************ 
  

top 5 | remo drive
top rock'n roll
Outras músicas do artista letras do(a) Remo Drive
Top cifras »Top artistas »
Petaxxon Comunicação Online
Cifras.com.br - Melhor e mais completo site de cifras e tablaturas do Brasil
Mais de 1 milhão de acordes de músicas cadastradas desde 2003
As informações contidas no nosso site são colaborações de seus usuários e podem conter erros, sendo assim, não nos responsabilizamos sobre nenhuma destas.
close
menos
mais
close
Cor dos acordes:

Cor da letra:

 

save
close
close
 
redimensionar