Cifras e Tablaturas
Reuben Hudson

Reuben Hudson

Sigh Not So

Cifras Cancelar Versão de Impressão
cifras

Reuben Hudson - Sigh Not So

fixar na tela  
Exibindo: vídeo-aula ver clipes redimensionar
  
Intro/Verse 

d |------------------------------------------------------------------0--------| 
A |------------------------------------------------------------------0--------| 
F#|--8------8--7------8--10---12------7-------8---5----------5-------5--------| 
D |-----0----------0--------------0-------0-----------0--------------0--------| 
A |---------0--------------------------------------------------------0--------| 
D |--9----0----10-------------12------10------5---5------5------5----5--------|(x3) 

d |-------------------------------------0-------------------------------------| 
A |---------------------------------0---0-------------------------------------| 
F#|---------8---------8---------5-------0-------------------------------------| 
D |-------0---------0---------0---------0-------------------------------------| 
A |-------------------------------------0-------------------------------------| 
D |----9---------9---------5------------0-------------------------------------| 

d |------------------------------------------------------------------0--------| 
A |------------------------------------------------------------------0--------| 
F#|--8------8--7------8--10---12------7-------8---5----------5-------5--------| 
D |-----0----------0--------------0-------0-----------0--------------0--------| 
A |---------0--------------------------------------------------------0--------| 
D |--9----0----10-------------12------10------5---5------5------5----5--------| 
          

Chorus 

d |-------------------------------------0---|---0---0-----0---0---0---0-------| 
A |---------------------------------0---0---|---0---0-----0---0---0---0-------| 
F#|---------8---------8---------5-------0---|---5---0-----8---7---5---0-------| 
D |-------0---------0---------0---------0---|---0---0-----0---0---0---0-------| 
A |-------------------------------------0---|---0---0-----0---0---0---0-------| 
D |----9---------9---------5------------0---|---5---0-----9---7---5---0-------| 

d |---0---0---0----0-----0------0---------------------------------------------| 
A |---0---0---0----0-----0------0---------------------------------------------| 
F#|---5---7---0----5-----0------7---------------------------------------------| 
D |---0---0---0----0-----0------0---------------------------------------------| 
A |---0---0---0----0-----0------0---------------------------------------------|           
D |---5---7---0----5-----0------7---------------------------------------------|  

strum once on the harmonic between frets 7 & 8 


Bridge 

d |---------------------------------------------------------------------------| 
A |---------------------------------------------------------------------------| 
F#|------------------------------------------2---0----------------------------| 
D |--0h2h4p2p0-------0---0-----0h2h4p2p0--------------------------------------| 
A |--------------0-2---4------------------------------------------------------| 
D |--0-----------------------0-------------0---0------------------------------|(x2) 

d |----------------------------------------0----------------------------------| 
A |----------------------------------------0----------------------------------| 
F#|---------7-------7-------5-------5------0----------------------------------| 
D |-----0-------0-------0-------0----------0----------------------------------| 
A |----------------------------------------0----------------------------------| 
D |---7---7---7---7---5---5---5---5---0----0----------------------------------|  


Verse 

d |----0---0---0---0------0----0--0-------------------------------------------| 
A |----0---0---0---0------0----0--0-------------------------------------------| 
F#|----8---7---0---5------8----5--0-------------------------------------------| 
D |----0---0---0---0------0----0--0-------------------------------------------| 
A |----0---0---0---0------0----0--0-------------------------------------------| 
D |----9---7---0---5------9----5--0-------------------------------------------|(x2) 


Chorus 

d |--0------0---0-----0---0---0---0---0---0---0----0-----0------0-------------| 
A |--0------0---0-----0---0---0---0---0---0---0----0-----0------0-------------| 
F#|--0------5---0-----8---7---5---0---5---7---0----5-----0------7-------------| 
D |--0------0---0-----0---0---0---0---0---0---0----0-----0------0-------------| 
A |--0------0---0-----0---0---0---0---0---0---0----0-----0------0-------------| 
D |--0------5---0-----9---7---5---0---5---7---0----5-----0------7-------------| 

strum once on the harmonic between frets 7 & 8, then one final open strum 



************************************ 

| h  Hammer-on 
| p  Pull-off  

************************************ 
  

top 5 | reuben hudson
top rock'n roll
Outras músicas do artista letras do(a) Reuben Hudson
Top cifras »Top artistas »
Petaxxon Comunicação Online
Cifras.com.br - Melhor e mais completo site de cifras e tablaturas do Brasil
Mais de 1 milhão de acordes de músicas cadastradas desde 2003
As informações contidas no nosso site são colaborações de seus usuários e podem conter erros, sendo assim, não nos responsabilizamos sobre nenhuma destas.
close
menos
mais
close
Cor dos acordes:

Cor da letra:

 

save
close
close
 
redimensionar