Cifras e Tablaturas
Rita Lee

Rita Lee

Jardins da Babilônia Tablatura Verificada

Ano: 2000
Album : Rita Hits
Compositor : (Rita Lee / Lee Marcucci)

Cifras Cancelar Versão de Impressão
cifras

Rita Lee - Jardins da Babilônia

fixar na tela  
Exibindo: vídeo-aula ver clipes redimensionar
  
Intro:   

e|-----------------------12-11-10-----8--x-x-8-x---------|  
B|---------------------------------------x-x-8-x-9/11~~--|  
G|-----5-5---0-2-----/12-12-11-10-8/9----x-x-9-x-8/12~~--|  
D|-----5-5---0-2-3---------------------------------------|  
A|---3-3-3-------1---------------------------------------|  
E|-------------------------------------------------------|  

e|-------------------------------------------------|  
B|-----8/11-11-10-9--8\--10-8----------------------|  
G|----------12-11-10-9\--10-8h9p8h9p8h9p8h9--------|  
D|--------------------------------------------10-8-|  
A|--------------------------------------------10-8-|  
E|-------------------------------------------------|  

e|------------------------------------------------------------|  
B|------------------------------------------------------------|  
G|------------------------------------------------------------|  
D|------------------------------10--------------------5-------|  
A|----8-10-10-10----------------10---5----------5-5h7---5h7-5-|  
E|------8--8--8--10/12-10-10h12----0-3--3-5-5/7---------------|  

Parte A: C5 C6 F5 F6 C G F5 G5  

e|---------------------------------------------------|  
B|---------------------------------------------------|  
G|---------------------------------------------------|  
D|-5--5--7--5----5--7--5-----5--7--5-----5--7--5/10--|  
A|-3--3--3--3----3--3--3-----3--3--3-----3--3--3/8---|  
E|---------------------------------------------------|  

e|---------------------------------------------|  
B|---------------------------------------------|  
G|---------------------------------------------|  
D|---------------------------------------------|  
A|-10-10-12-10----10-12-10----10-12-10----10\3-|  
E|-8--8--8--8-----8--8--8-----8--8--8-----8-\5-|  

e|-----------------------------------------------|  
B|-----------------------------------------------|  
G|-----------------------------------------------|  
D|-----------------------------------------------|  
A|-5--5--5--7--5-----5--7--5--12-12-14-12----12--|  
E|-3--3--3--3--3-----3--3--3--10-10-10-10----10--|  

e|----------------------------------------------------|  
B|----------------------------------------------------|  
G|----------------------------------------------------|  
D|-10-10-12-10----10-12-10--12-12-14-12----12-14-12---|  
A|-8--8--8--8-----8--8--8---10-10-10-10----10-10-10---|  
E|----------------------------------------------------|  

e|--------------------------------------------------|  
B|--------------------------------------------------|  
G|--------------------------------------------------|  
D|-5--5--7--5----5--7--5-----5--7--5-----5--7--5/10-|  
A|-3--3--3--3----3--3--3-----3--3--3-----3--3--3/8--|  
E|--------------------------------------------------|  

e|----------------------------------------------|  
B|----------------------------------------------|  
G|----------------------------------------------|  
D|-10-10-12-10-----10-12-10----10-12-10---10\3--|  
A|--8--8--8--8-----8--8--8-----8--8--8----8-\5--|  
E|----------------------------------------------|  

e|-------------------------------------------|  
B|-------------------------------------------|  
G|-------------------------------------------|  
D|-5--5--7--5------5--7--5--7--7--9--7-------|  
A|-3--3--3--3------3--3--3--5--5--5--5--5--5-|  
E|--------------------------------------3--3-|  

e|---------------------------------------|  
B|---------------------------------------|  
G|---------------------------------------|  
D|-5--5--5--7--5-----5--7--5-----5-----5-|  
A|-3--3--3--3--3-----3--3--3-----3-----3-|  
E|---------------------------------------|  

e|-------|  
B|-------|  
G|-------|  
D|-------|  
A|-2-1-0-|  
E|-------|  

Refrão: Am F Am D  

e|---------|  
B|---------|  
G|---------|  
D|---------|  
A|-2-1-0---|  
E|-------3-|  

Parte A: C5 C6 F5 F6 C G F5 G5  

e|---------------------------------------------------|  
B|---------------------------------------------------|  
G|---------------------------------------------------|  
D|-5--5--7--5----5--7--5-----5--7--5-----5--7--5/10--|  
A|-3--3--3--3----3--3--3-----3--3--3-----3--3--3/8---|  
E|---------------------------------------------------|  

e|---------------------------------------------|  
B|---------------------------------------------|  
G|---------------------------------------------|  
D|---------------------------------------------|  
A|-10-10-12-10----10-12-10----10-12-10----10\3-|  
E|-8--8--8--8-----8--8--8-----8--8--8-----8-\5-|  

e|-----------------------------------------------|  
B|-----------------------------------------------|  
G|-----------------------------------------------|  
D|-----------------------------------------------|  
A|-5--5--5--7--5-----5--7--5--12-12-14-12----12--|  
E|-3--3--3--3--3-----3--3--3--10-10-10-10----10--|  

e|----------------------------------------------------|  
B|----------------------------------------------------|  
G|----------------------------------------------------|  
D|-10-10-12-10----10-12-10--12-12-14-12----12-14-12---|  
A|-8--8--8--8-----8--8--8---10-10-10-10----10-10-10---|  
E|----------------------------------------------------|  

e|--------------------------------------------------|  
B|--------------------------------------------------|  
G|--------------------------------------------------|  
D|-5--5--7--5----5--7--5-----5--7--5-----5--7--5/10-|  
A|-3--3--3--3----3--3--3-----3--3--3-----3--3--3/8--|  
E|--------------------------------------------------|  

e|----------------------------------------------|  
B|----------------------------------------------|  
G|----------------------------------------------|  
D|-10-10-12-10-----10-12-10----10-12-10---10\3--|  
A|--8--8--8--8-----8--8--8-----8--8--8----8-\5--|  
E|----------------------------------------------|  

e|-------------------------------------------|  
B|-------------------------------------------|  
G|-------------------------------------------|  
D|-5--5--7--5------5--7--5--7--7--9--7-------|  
A|-3--3--3--3------3--3--3--5--5--5--5--5--5-|  
E|--------------------------------------3--3-|  

e|---------------------------------------|  
B|---------------------------------------|  
G|---------------------------------------|  
D|-5--5--5--7--5-----5--7--5-----5-----5-|  
A|-3--3--3--3--3-----3--3--3-----3-----3-|  
E|---------------------------------------|  

e|-------|  
B|-------|  
G|-------|  
D|-------|  
A|-2-1-0-|  
E|-------|  

e|------------------------------|  
B|----------------------13~~~~--|  
G|----------------12-14---------|  
D|-------10-12/14---------------|  
A|-10-12------------------------|  
E|------------------------------|  

Solo:  

e|-----5-----------5--------------------------|  
B|--------5-8b10~~----8-5---------------------|  
G|-7b9--------------------7b9r7p5-7b9r7p5-----|  
D|--------------------------------------------|  
A|----------------------------------------8~~-|  
E|--------------------------------------------|  

e|---------------------------------------------|  
B|---------------------------------------------|  
G|-----5--7-7-7-7-5-5-5-5-----------------5~~--|  
D|-5/7--------------------7-7-7p5-----5--------|  
A|--------------------------------7p5---7------|  
E|---------------------------------------------|  

e|------------------------------8----8-10---|  
B|-----------------------8-10p8---10--------|  
G|-------------5---5-7/9--------------------|  
D|-------5-7p5---7--------------------------|  
A|-3-5/7------------------------------------|  
E|------------------------------------------|  

e|-10b12-10-10b12-10-10b12-10-10b12-10-10b12-10-10b12-10b12~~~~---|  
B|----------------------------------------------------------------|  
G|----------------------------------------------------------------|  
D|----------------------------------------------------------------|  
A|----------------------------------------------------------------|  
E|----------------------------------------------------------------|  

  

cifra enviadacorrigido por:Acelot
enviado porenviada por:Acelot
top 5 | rita lee
top rock'n roll
Outras músicas do artista letras do(a) Rita Lee
Top cifras »Top artistas »
Petaxxon Comunicação Online
Cifras.com.br - Melhor e mais completo site de cifras e tablaturas do Brasil
Mais de 1 milhão de acordes de músicas cadastradas desde 2003
As informações contidas no nosso site são colaborações de seus usuários e podem conter erros, sendo assim, não nos responsabilizamos sobre nenhuma destas.
close
menos
mais
close
Cor dos acordes:

Cor da letra:

 

save
close
close
 
redimensionar