Cifras e Tablaturas
Rival Sons

Rival Sons

Sacred Tongue

Cifras Cancelar Versão de Impressão
cifras

Rival Sons - Sacred Tongue

fixar na tela  
Exibindo: vídeo-aula ver clipes redimensionar

Tom:

  
Verse (x5) 
Come to you on broken wing / Naked as you knew I'd be 
d|----------10--------12--------10-------------------0--------0--------0------------------| 
B|--10h12--------12--------12--------12---0--10h12-------12-------12-------12---0---------| 
G|--------0---------0---------0---------0----------0--------0--------0--------0-----------| 
D|----------------------------------------------------------------------------------------| 
G|--0----------0---------0---------0---------0---------0--------0--------0----------------| 
D|----------------------------------------------------------------------------------------| 

Pre-Chorus (x2) 
Will you shave my head / And wash the world from my mouth? 
d|------0-------0----------0-------0-----| 
B|----8---8---8---8------8---8---8---8---| 
G|---------8---8---8----------8---8---8--|  
D|---------------------------------------| 
G|--8--------8---8-----5--------5---5----| 
D|---------------------------------------| 

Chorus 
Will you whisper in my hands 
d|-------------------------------------0-------0--------0-------0--------| 
B|----8-8---8-8---8-8---8-8---8-8----8---8---8---8----8---8---8---8------| 
G|-----8-----8-----8-----8-----8-----8--------8---8---8--------8---8-----| 
D|-----------------------------------------------------------------------| 
G|--------------------8-----7------5-------5----5---5-------5----5-------| 
D|--5-----7-----8--------------------------------------------------------| 

And let me dance inside your chest 
d|-------------------------------------0-------0--------0-------0--------| 
B|----8-8---8-8---8-8---8-8---8-8----8---8---8---8----8---8---8---8------| 
G|-----8-----8-----8-----8-----8-----8--------8---8---8--------8---8-----| 
D|-----------------------------------------------------------------------| 
G|--------------------8-----7--------------------------------------------| 
D|--5-----7-----8------------------8--------8---8---8-------8----8-------| 

Till my tongue is sacred again? 
d|------0-----0-----0-----0-----0-----0-----0-----0---0-------| 
B|----8-----8-----8-----8-----8-----8-----8-----8-----3-------| 
G|-----8-----8-----8-----8-----8-----8-----8-----8----0-------| 
D|----------------------------------------------------0-------| 
G|--------------------8-----7-----5-------------------0-------| 
D|--5-----7-----8-----------------------8-----7---------------| 

Outro (x2) 
d|--10---10---8----10p8-----10---10---8---0----------| 
B|----11---11--10------10-----11---11--10---10-------| 
G|---------------0-------0---------------0----0------|  
D|---------------------------------------------------|    
G|--9----10---0-------------9----10---0----0---------| 
D|---------------------------------------------------| 

Verse (x5) 
Come to you with poisoned eyes / Violent as my death will be 
d|----------10--------12--------10-------------------0--------0--------0------------------| 
B|--10h12--------12--------12--------12---0--10h12-------12-------12-------12---0---------| 
G|--------0---------0---------0---------0----------0--------0--------0--------0-----------| 
D|----------------------------------------------------------------------------------------| 
G|--0----------0---------0---------0---------0---------0--------0--------0----------------| 
D|----------------------------------------------------------------------------------------| 

Pre-Chorus (x2) 
Won't you wash my face / And take away my anger? 
d|------0-------0----------0-------0-----| 
B|----8---8---8---8------8---8---8---8---| 
G|---------8---8---8----------8---8---8--|  
D|---------------------------------------| 
G|--8--------8---8-----5--------5---5----| 
D|---------------------------------------| 

Chorus 
Will you whisper in my hands 
d|-------------------------------------0-------0--------0-------0--------| 
B|----8-8---8-8---8-8---8-8---8-8----8---8---8---8----8---8---8---8------| 
G|-----8-----8-----8-----8-----8-----8--------8---8---8--------8---8-----| 
D|-----------------------------------------------------------------------| 
G|--------------------8-----7------5-------5----5---5-------5----5-------| 
D|--5-----7-----8--------------------------------------------------------| 

And let me dance inside your chest 
d|-------------------------------------0-------0--------0-------0--------| 
B|----8-8---8-8---8-8---8-8---8-8----8---8---8---8----8---8---8---8------| 
G|-----8-----8-----8-----8-----8-----8--------8---8---8--------8---8-----| 
D|-----------------------------------------------------------------------| 
G|--------------------8-----7--------------------------------------------| 
D|--5-----7-----8------------------8--------8---8---8-------8----8-------| 

Till my tongue is sacred again? 
d|------0-----0-----0-----0-----0-----0-----0-----0---0-------| 
B|----8-----8-----8-----8-----8-----8-----8-----8-----3-------| 
G|-----8-----8-----8-----8-----8-----8-----8-----8----0-------| 
D|----------------------------------------------------0-------| 
G|--------------------8-----7-----5-------------------0-------| 
D|--5-----7-----8-----------------------8-----7---------------| 

Outro (x8) 
d|--10---10---8----10p8-----10---10---8---0----------| 
B|----11---11--10------10-----11---11--10---10-------| 
G|---------------0-------0---------------0----0------|  
D|---------------------------------------------------|    
G|--9----10---0-------------9----10---0----0---------| 
D|---------------------------------------------------| 

************************************ 

| h  Hammer-on 
| p  Pull-off 

************************************ 
  

top 5 | rival sons
top blues
Outras músicas do artista letras do(a) Rival Sons
Top cifras »Top artistas »
Petaxxon Comunicação Online
Cifras.com.br - Melhor e mais completo site de cifras e tablaturas do Brasil
Mais de 1 milhão de acordes de músicas cadastradas desde 2003
As informações contidas no nosso site são colaborações de seus usuários e podem conter erros, sendo assim, não nos responsabilizamos sobre nenhuma destas.
close
menos
mais
close
Cor dos acordes:

Cor da letra:

 

save
close
close
 
redimensionar