Cifras e Tablaturas
Rival Sons

Rival Sons

Tied Up

Cifras Cancelar Versão de Impressão
cifras

Rival Sons - Tied Up

fixar na tela  
Exibindo: vídeo-aula ver clipes redimensionar

Tom:

  
Intro 

e|--------------------------------------------------------------------------------------| 
B|--7-10-7-7-10p7---7-------------------------------------------------------------------| 
G|----------------9---9-6------6-9-6-6-9p6---6----------4-7-4-4-7p4---4-----------------| x2 
D|-------------------------9---------------9----9-7--4--------------7---7-4--4-7-4------| 
A|--------------------------------------------------------------------------7------5/7--| 
E|--------------------------------------------------------------------------------------| 


Verse 

e|-----------------------/9----/9----------------------------/9---/9---------------| 
B|-----------------------/10---/10---------------------------/10--/10--------------| 
G|-----------------------/9----/9----------------------------/9---/9---------------| 
D|-----------------------/11---/11------------2-1p0----------/11--/11--------------| 
A|----4---3---2p0--------/9----/9--------0h2---------4-3-----/9---/9---------------| 
E|-2----------------2------------------2------------------2------------------------| 


Chorus 

e|--------------------------------------------------------------------------------------| 
B|--7-10-7-7-10p7---7-------------------------------------------------------------------| 
G|----------------9---9-6------6-9-6-6-9p6---6----------4-7-4-4-7p4---4-----------------| x2 
D|-------------------------9---------------9----9-7--4--------------7---7-4--4-7-4------| 
A|--------------------------------------------------------------------------7------5/7--| 
E|--------------------------------------------------------------------------------------| 


Solo 

e|-7----7-10p7--10b12-10-7---7-7-7-7-7----|--12-10----------------------------| 
B|---10--------------------------------10-|--------12-10----------------------| 
G|----------------------------------------|--------------11-10-9-7-9-7--------| 
D|----------------------------------------|-----------------------------------| 
A|----------------------------------------|-----------------------------------| 
E|----------------------------------------|-----------------------------------| 

e|--------------------------------------|-7----7-10b12---7----7---------------| 
B|--------------------------------------|---10-------------10-----------------| 
G|------7----7--11-10-9-7-9-7-----------|-------------------------------------| 
D|--9-9----9------------------9-7--9----|-------------------------------------| 
A|--------------------------------------|-------------------------------------| 
E|--------------------------------------|-------------------------------------| 

e|-5----7---10-7--10-----10b12----------| 
B|---5----7----------10-----------------| 
G|--------------------------------------| 
D|--------------------------------------| 
A|--------------------------------------| 
E|--------------------------------------| 


Chorus 2 

e|--------------------------------------------------------------------------------------| 
B|--7-10-7-7-10p7---7-------------------------------------------------------------------| 
G|----------------9---9-6------6-9-6-6-9p6---6----------4-7-4-4-7p4---4-----------------| x2 
D|-------------------------9---------------9----9-7--4--------------7---7-4--4-7-4------| 
A|--------------------------------------------------------------------------7------5/7--| 
E|--------------------------------------------------------------------------------------| 


Outro 

e|---------------------------------------------------------------| 
B|----------2/12---10h12p10-------------8--8--8--8--/10-10-10----| 
G|----------2/12------------12-11-------9--9--9--9--/11-11-11----| 
D|-----2h4--2/12------------------12----10-10-10-10-/12-12-12----| 
A|-2h4-----------------------------------------------------------| 
E|---------------------------------------------------------------| 

There are a couple of variations. Outro repeats until fade on the album. 



************************************ 

| h  Hammer-on 
| p  Pull-off 
| b  Bend 
| /  Slide up 

************************************ 
  

top 5 | rival sons
top blues
Outras músicas do artista letras do(a) Rival Sons
Top cifras »Top artistas »
Petaxxon Comunicação Online
Cifras.com.br - Melhor e mais completo site de cifras e tablaturas do Brasil
Mais de 1 milhão de acordes de músicas cadastradas desde 2003
As informações contidas no nosso site são colaborações de seus usuários e podem conter erros, sendo assim, não nos responsabilizamos sobre nenhuma destas.
close
menos
mais
close
Cor dos acordes:

Cor da letra:

 

save
close
close
 
redimensionar