Cifras e Tablaturas
Roads

Roads

Work

Cifras Cancelar Versão de Impressão Print

Roads - Work

Tom: D

  • 0:00 / 0:00
Transcribed: 12 May 2004 
 
Notes: Drop D Tunning (DADGBE) - the band probably tune down to C for 
this song, but it sounds pretty close in Drop D.  
 
INTRO: 
E-|--------------------------|--------------------------------|- 
B-|--------------------------|--------------------------------|- 
G-|-----5-----------5--------|------5-------------------------|- 
D-|-----5-7-5-7-----5-7-5-7--|------5-7-5-7------------5------|- 
A-|-7-----7-5-7-x-5---7-5-7--|--7-----7-5-7--x-x-5--7-----3~~-|- 
D-|-7------------------------|--7-----------------------------|- 
 
E-|----------------------------|----------------------------------|- 
B-|----------------------------|----------------------------------|- 
G-|-------5-----------5--------|--------5-------------------------|- 
D-|-------5-7-5-7-----5-7-5-7--|--------5-7-5-7------------5------|- 
A-|-7---5---7-5-7-x-5---7-5-7--|--7---5---7-5-7--x-x-5--7-----3~~-|- 
D-|-7--------------------------|--7-------------------------------|- 
 
VERSE RIFF: 
E-|----------------------------|----------------------------------|- 
B-|----------------------------|----------------------------------|- 
G-|-------5-----------5--------|--------5-------------------------|- 
D-|-------5-7-5-7-----5-7-5-7--|--------5-7-5-7------------5------|- 
A-|-7---5---7-5-7-x-5---7-5-7--|--7---5---7-5-7--x-x-5--7-----3~~-|- 
D-|-7--------------------------|--7-------------------------------|- 
 
PRE CHORUS CHORDS: 
    C    D 
E-|----------|- 
B-|----------|- 
G-|-5----7---|- 
D-|-5----7---|- 
A-|-3----5---|- 
D-|------0---|- 
 
CHORUS CHORDS: 
    A     F 
E-|------------|- 
B-|------------|- 
G-|-9-----5----|- 
D-|-7-----3----|- 
A-|-7-----3----|- 
D-|-7-----3----|- 
 
SOLO / enough is enough part: 
    F#                       A    D    B    C# A  F# 
E-|----------------------------------------------------|- 
B-|----------------------------------------------------|- 
G-|--------------------------2-2--7-7--4-4--6--2-------|- 
D-|-4-4-4-4-4-4-4-4-4-4-4-4--2-2--7-7--4-4--6--2--(4)--|-(x 4) 
A-|-4-4-4-4-4-4-4-4-4-4-4-4--0-0--5-5--2-2--4--0--(4)--|- 
D-|-4-4-4-4-4-4-4-4-4-4-4-4-----------------------(4)--|- 
 
E-|-------------------------------------------------------------|- 
B-|-------------------------------------------------------------|- 
G-|-----------------6-6-6---------------2--6--4--7--4--6--2-----|- 
D-|-4---7-7-7-4-----6-6-6-4----7-7-7-4--2--6--4--7--4--6--2--4--|- 
A-|-4---7-7-7-4-----4-4-4-4----7-7-7-4--0--4--2--5--2--4--0--4--|- 
D-|-4---7-7-7-4-----------4----7-7-7-4-----------------------4--|- 
 
E-|-------------------------------------------------------------|- 
B-|-------------------------------------------------------------|- 
G-|-----------------6-6-6---------------2--6--4--7--4--6--4-----|- 
D-|-4---7-7-7-4-----6-6-6-4----7-7-7-4--2--6--4--7--4--6--4--7--|- 
A-|-4---7-7-7-4-----4-4-4-4----7-7-7-4--0--4--2--5--2--4--2--7--|- 
D-|-4---7-7-7-4-----------4----7-7-7-4-----------------------7--|- 
 
E-|----------------------------|----------------------------------|- 
B-|----------------------------|----------------------------------|- 
G-|-------5-----------5--------|--------5-------------------------|- 
D-|-------5-7-5-7-----5-7-5-7--|--------5-7-5-7------------5------|- 
A-|-7---5---7-5-7-x-5---7-5-7--|--7---5---7-5-7--x-x-5--7-----3~~-|- 
D-|-7--------------------------|--7-------------------------------|- 
 
E-|----------------------------|----------------|- 
B-|----------------------------|----------------|- 
G-|-------5-----------5--------|--------5-------|- 
D-|-------5-7-5-7-----5-7-5-7--|--------5-7-5-7-|- 
A-|-7---5---7-5-7-x-5---7-5-7--|--7---5---7-5-7-|- 
D-|-7--------------------------|--7-------------|- 
 
 

enviado porenviado por: anônimo
cifra enviadaCorrigida por: sem correções
logo top cifrasComente
ico música do artistaMúsicas deste artista
ico curtiuCurtiu?
ico destaqueDestaque
Petaxxon Comunicação Online

Cifras.com.br - Melhor e mais completo site de cifras e tablaturas do Brasil Mais de 1 milhão de acordes de músicas cadastradas desde 2003
As informações contidas no nosso site são colaborações de seus usuários e podem conter erros, sendo assim, não nos responsabilizamos sobre nenhuma destas.

close
menos
mais
close
Cor dos acordes:

Cor da letra:

close
Alinhar acordes a direita Alinhar acordes a esquerda Alinhar acordes em baixo Alinhar acordes no topo
close
  Mostrar todos os acordes Esconder acordes muito fáceis Esconder acordes fáceis Esconder acordes intermediários
redimensionar
glossário