Cifras e Tablaturas
Roberto Carlos

Roberto Carlos

Detalhes

Ano: 1989
Album : 30 Grandes Sucessos
Compositor : (Roberto e Erasmo Carlos)

Cifras Cancelar Versão de Impressão

Roberto Carlos - Detalhes

Tom: A

  			Detalhes -=Solo=- 
Roberto Carlos; Erasmo Carlos 
  
(INTRODUÇÃO)                                  
E |-----3-----3-----3-----3-----| 
B |---5-----5-----5-----5-------| 
G |-5-----4-----5-----4-----3-2-| 
D |-----------------------------| 
A |-----------------------------| 
E |-----------------------------| 

   Não Adianta Nem Tentar... Durante Muito tempo em sua vida...  
E |-------------------------|----------------------------------| 
B |-------------------5-3-1-|--------------------------5-3-1---| 
G |-0-2-0-2-0-2-0-2-0-------|-0-2-0-2-0-2-0-2-0-2-0--0-------2-| 
D |-------------------------|----------------------------------| 
A |-------------------------|----------------------------------| 
E |-------------------------|----------------------------------| 

   Detalhes tão...       São coisas muito...   E a toda hora vão estar...      
E |---------------------|---------------------|------------------------------| 
B |---6-5-6-5-6-5-6-5-6-|---5-3-5-3-5-3-5-3-5-|--3-1-3-1-3-1-3-1-------------| 
G |-0-------------------|-0-------------------|0-----------------3-3-2-3-2-0-| 
D |---------------------|---------------------|------------------------------| 
A |---------------------|---------------------|------------------------------| 
E |---------------------|---------------------|------------------------------| 

   Se um outro cabeludo aparecer... E Isso lhe troxer saudades...      
E |-------------------------------|----------------------------------| 
B |-----------------------5-3-1---|--------------------------5-3-1---| 
G |-0-2-0-2-0-2-0-2-0-2-0-------2-|-0-2-0-2-0-2-0-2-0-2-0--0-------2-| 
D |-------------------------------|----------------------------------| 
A |-------------------------------|----------------------------------| 
E |-------------------------------|----------------------------------| 

   O Ronco...            A Velha calça...      Imediatamente você vai... 
E |---------------------|---------------------|------------------------------| 
B |---6-5-6-5-6-5-6-5-6-|---5-3-5-3-5-3-5-3-5-|--3-1-3-1-3-1-3-1-------------| 
G |-0-------------------|-0-------------------|0-----------------3-3-2-3-2-0-| 
D |---------------------|---------------------|------------------------------| 
A |---------------------|---------------------|------------------------------| 
E |---------------------|---------------------|------------------------------| 

   Eu sei que um outro...          Palavras de amor...            
E |-------------------------------|----------------------------------| 
B |-----------------------5-3-1---|--------------------------5-3-1---| 
G |-0-2-0-2-0-2-0-2-0-2-0-------2-|-0-2-0-2-0-2-0-2-0-2-0--0-------2-| 
D |-------------------------------|----------------------------------| 
A |-------------------------------|----------------------------------| 
E |-------------------------------|----------------------------------| 

   Duvido que ele...     E até os erros...     E nessa hora você vai... 
E |---------------------|---------------------|------------------------------| 
B |---6-5-6-5-6-5-6-5-6-|---5-3-5-3-5-3-5-3-5-|--3-1-3-1-3-1-3-1-------------| 
G |-0-------------------|-0-------------------|0-----------------3-3-2-3-2-0-| 
D |---------------------|---------------------|------------------------------| 
A |---------------------|---------------------|------------------------------| 
E |---------------------|---------------------|------------------------------| 

   A noite envolvida...            Antes de dormir você procura...         
E |-------------------------------|----------------------------------| 
B |-----------------------5-3-1---|--------------------------5-3-1---| 
G |-0-2-0-2-0-2-0-2-0-2-0-------2-|-0-2-0-2-0-2-0-2-0-2-0--0-------2-| 
D |-------------------------------|----------------------------------| 
A |-------------------------------|----------------------------------| 
E |-------------------------------|----------------------------------| 

   Mas da moldura não... Mas você vê o meu...  E tudo isso vai fazer você... 
E |---------------------|---------------------|------------------------------| 
B |---6-5-6-5-6-5-6-5-6-|---5-3-5-3-5-3-5-3-5-|--3-1-3-1-3-1-3-1-------------| 
G |-0-------------------|-0-------------------|0-----------------3-3-2-3-2-0-| 
D |---------------------|---------------------|------------------------------| 
A |---------------------|---------------------|------------------------------| 
E |---------------------|---------------------|------------------------------| 

   Se alguém tocar...              Não vá dizer meu nome sem querer...      
E |-------------------------------|----------------------------------| 
B |-----------------------5-3-1---|--------------------------5-3-1---| 
G |-0-2-0-2-0-2-0-2-0-2-0-------2-|-0-2-0-2-0-2-0-2-0-2-0--0-------2-| 
D |-------------------------------|----------------------------------| 
A |-------------------------------|----------------------------------| 
E |-------------------------------|----------------------------------| 

   Pensando ter amor...  Desesperada você...   Mas até nesse momento você vai... 
E |---------------------|---------------------|------------------------------| 
B |---6-5-6-5-6-5-6-5-6-|---5-3-5-3-5-3-5-3-5-|--3-1-3-1-3-1-3-1-------------| 
G |-0-------------------|-0-------------------|0-----------------3-3-2-3-2-0-| 
D |---------------------|---------------------|------------------------------| 
A |---------------------|---------------------|------------------------------| 
E |---------------------|---------------------|------------------------------| 

   Eu sei que esses detalhes...    Do tempo que transforma...        
E |-------------------------------|----------------------------------| 
B |-----------------------5-3-1---|--------------------------5-3-1---| 
G |-0-2-0-2-0-2-0-2-0-2-0-------2-|-0-2-0-2-0-2-0-2-0-2-0--0-------2-| 
D |-------------------------------|----------------------------------| 
A |-------------------------------|----------------------------------| 
E |-------------------------------|----------------------------------| 
    
   Mas "quase" também... Um grande amor...     Por isso, de vez em quando você vai... 
E |---------------------|---------------------|--------------------------------| 
B |---6-5-6-5-6-5-6-5-6-|---5-3-5-3-5-3-5-3-5-|--3-3-1-3-1-3-1-3-1-------------| 
G |-0-------------------|-0-------------------|0-------------------3-3-2-3-2-0-| 
D |---------------------|---------------------|--------------------------------| 
A |---------------------|---------------------|--------------------------------| 
E |---------------------|---------------------|--------------------------------| 

   Não adianta nem tentar...       Durante muito...                   Não, não adianta nem tentar... 
E |-------------------------------|----------------------------------|----------------------------------| 
B |-----------------------5-3-1---|--------------------------5-3-1---|--------------------------5--3--1-| 
G |-0-2-0-2-0-2-0-2-0-2-0-------2-|-0-2-0-2-0-2-0-2-0-2-0--0-------2-|-0-2-0-2-0-2-0-2-0-2-0--0---------| 
D |-------------------------------|----------------------------------|----------------------------------| 
A |-------------------------------|----------------------------------|----------------------------------| 
E |-------------------------------|----------------------------------|----------------------------------| 


Dieo Bachini Lima 
    	
fixar
fixar inscrever-se

enviado porenviado por: dblenter
cifra enviadaCorrigida por: sem correções
logo top cifrasComente
ico música do artistaMúsicas deste artista
ico curtiuCurtiu?
ico destaqueDestaque
Petaxxon Comunicação Online

Cifras.com.br - Melhor e mais completo site de cifras e tablaturas do Brasil Mais de 1 milhão de acordes de músicas cadastradas desde 2003
As informações contidas no nosso site são colaborações de seus usuários e podem conter erros, sendo assim, não nos responsabilizamos sobre nenhuma destas.

close
menos
mais
close
Cor dos acordes:

Cor da letra:

close
Alinhar acordes a direita Alinhar acordes a esquerda Alinhar acordes em baixo Alinhar acordes no topo
close
  Mostrar todos os acordes Esconder acordes muito fáceis Esconder acordes fáceis Esconder acordes intermediários
redimensionar
glossário