Cifras e Tablaturas
Roberto Carlos

Roberto Carlos

É Proibido Fumar

Ano: 1964
Album : Acústico MTV
Compositor : (Roberto Carlos-Erasmo Carlos)

Cifras Cancelar Versão de Impressão

Roberto Carlos - É Proibido Fumar

Tom: Gm

  			bem galera esse é proibido fumar é do acustico mtv e quem toca é samuel rosa 
eu nao sei se ta certo pq é minha primeira musica de ouvido 
entao ai vai: 
 
Intro: 
 F7 
e-1------------------|Faz a intro varias vezes. 
B-1------------------| 
G-2------------------| 
D-0---------4-2------| 
A-3------2-----4-2-2-| 
E-1---2/4-4-------4--| 
 
riff 1: 
e---------------------------| 
B---------------------------| 
G---------------------------| 
D---------------------------| 
A-3-3-3-3-3-3--3-3-3-3--3-3-| 
E-1-1-1-1-4-1--1-1-1-4--1-1-| 
 
riff 2  
e---------------------------| 
B---------------------------| 
G---------------------------| 
D---------------------------| 
A-5-5-5-5-5-5--5-5-5-5--5-5-| 
E-3-3-3-3-6-3--3-3-3-6--3-3-| 
 
Riff 3 
e-------------------------------------------| 
B-7-7-7-7-7-7-7-7-7-7-7-7-7-7-7-7-7-7-7-7-7-| 
G-7-7-7-7-7-7-7-7-7-7-7-7-7-7-7-7-7-7-7-7-7-| 
D-7-7-7-7-7-7-7-7-7-7-7-7-7-7-7-7-7-7-7-7-7-| 
A-------------------------------------------| 
E-------------------------------------------| 
 
Riff 4 
e-------------------------------------------| 
B-5-5-5-5-5-5-5-5-5-5-5-5-5-5-5-5-5-5-5-5-5-| 
G-5-5-5-5-5-5-5-5-5-5-5-5-5-5-5-5-5-5-5-5-5-| 
D-5-5-5-5-5-5-5-5-5-5-5-5-5-5-5-5-5-5-5-5-5-| 
A-------------------------------------------| 
E-------------------------------------------| 
 
Riff 5(SO USA NO FINAL DO REFRAO) 
  D 
e-5----| 
B-7----|Varias Vezes 
G-7----| 
D------| 
A------| 
E------| 
 
Ai depois desse riffs vem o solo q ate hj nao peguei 
eu improviso na hora do solo façam isso tb agora vamos a musica 
 
Intro Varias Vezes 
 
Riff 1 
É proibido fumar diz o aviso que eu li 
Riff 2           Riff 1 
É proibido fumar pois o fogo pode pegar 
Riff 3 
Mas nem adianta o aviso olhar 
Riff 4 
Pois a brasa que agora eu vou mandar 
Riff 1 
Nem bombeiro pode apagar 
Riff 1 
Nem bombeiro pode apagar 
   Riff 3            Riff 4    
Eu pego uma garota e canto uma canção 
Riff 3                Riff 4 
Nela dou um beijo com empolgação 
Riff 3                  Riff 4 
Do beijo sai faísca e a turma toda grita 
Riff 4                  Riff 5 
 Que o fogo pode pegar 
Riff 1 
Nem bombeiro pode apagar 
 
O beijo que eu dei nela assim 
Riff 2 
Nem bombeiro pode apagar 
Riff 1 
Garota pegou fogo em mim 
Riff 3               Riff 4 
Sigo incendiando bem contente e feliz 
Riff 4              Riff 4 
Nunca respeitando o aviso que diz 
    Riff 1  
Que é proibido fumar 
Riff 1     
Que é proibido fumar 
 
Solo.(Improvisem pq o solo eu nao sei) 
   Riff 3            Riff 4 
Eu pego uma garota e canto uma canção 
Riff 3                Riff 4 
Nela dou um beijo com empolgação 
Riff 3                  Riff 4 
Do beijo sai faísca e a turma toda grita 
Riff 4                 Riff 5 
 Que o fogo pode pegar 
Riff 1 
Nem bombeiro pode apagar 
Riff 1 
O beijo que eu dei nela assim 
Riff 2 
Nem bombeiro pode apagar 
Riff 1 
Garota pegou fogo em mim 
Riff 3               Riff 4 
Sigo incendiando bem contente e feliz 
Riff 3              Riff 4  
Nunca respeitando o aviso que diz 
    Riff 1 
Que é proibido fumar(2x) 
 
Fim com o riff 6: 
 
e-3-2-1-------------------| ai toca um F7 quantas vezes quiser. 
B------3--1---------------| 
G----------3-1------------| 
D--------------1/3--------| 
A-----------------1-3-----| 
E-------------------------| 
 
Ai galera essa foi a tablatura de "É Proibido Fumar" 
Do Acustico Mtv Roberto Carlos em que Samuel Rosa Toca o Violao Solo 
Pra entender a musica e escuta ela e se alguem pegar o solo manda pro cifras blz? Valeu Fui 
(Tablatura escrita por mim e a letra da musica peguei na inter net) 
 
 
FUI E GUITARRA NA VEIA GALERA É ISSO AI I LOVE RED HOT CHILI PEPPERS 
QUALQUER COISA TOU AI NO HOTMAIL ME ADICIONEM SE QUISER FALAR ALGO AI DE MUSICA: 
[email protected] 
    	
fixar
fixar inscrever-se

enviado porenviado por: mneto
cifra enviadaCorrigida por: sem correções
logo top cifrasComente
ico música do artistaMúsicas deste artista
ico curtiuCurtiu?
ico destaqueDestaque
Petaxxon Comunicação Online

Cifras.com.br - Melhor e mais completo site de cifras e tablaturas do Brasil Mais de 1 milhão de acordes de músicas cadastradas desde 2003
As informações contidas no nosso site são colaborações de seus usuários e podem conter erros, sendo assim, não nos responsabilizamos sobre nenhuma destas.

close
menos
mais
close
Cor dos acordes:

Cor da letra:

close
Alinhar acordes a direita Alinhar acordes a esquerda Alinhar acordes em baixo Alinhar acordes no topo
close
  Mostrar todos os acordes Esconder acordes muito fáceis Esconder acordes fáceis Esconder acordes intermediários
redimensionar
glossário