Cifras e Tablaturas
Roo Panes

Roo Panes

I'll Move Mountains

Cifras Cancelar Versão de Impressão
cifras

Roo Panes - I'll Move Mountains

fixar na tela  
Exibindo: vídeo-aula ver clipes redimensionar

Tom:

  
D|---------0---0---3-----3-----3---0---0-------0-----0-----------0-----------| 
A|-----3h5---5---5---5-------5-------5-----5\3---3p2---2h3---3p2---2p0---0---| 
D|---0-----------------0---0-----0-------0-----------------0-----------0-----| 
D|---------------------------------------------------------------------------| 
A|---------------------------------------------------------------------------| 
D|-0-----------------------------------------------------------------------3-| 
 
 
D|-------0---------------0-------0h3---3/5---5\2---2p0-----------------0-----| 
A|---0h3-----3---------5-----5----5--5-----7-----3-----3p2---2-----2h3-----3-| 
D|-0-------0---------0-----0-------------------------------0-----0-------0---| 
D|---------------------------------------------------------------------------| 
A|---------------------------------------------------------------------------| 
D|---------------3/5-----------0-------------------------------3-------------| 
 
 
D|-0---------0---0-----0----0-----0-----0-----0-----0------0-----0-----0---0-| 
A|---------5-------5----------5-----5-----5-----5---5\3------3---3/5---5---0-| 
D|-------0-----------0----------0-----0-----0-------0------------0-----0---0-| 
D|--------------------------------------------------0------------0-----0---0-| 
A|--------------------------------------------------0------------0-----0---3-| 
D|---3/5-------5---------5--------------------------5\3----------0-----0---3-| 
 
                                                  Strum   Pick  Strum 
 
D|-0---0---0---0---0---------------------------------------------------------| 
A|-0---0---0---0---0-----0h2-------------------------------------------------| 
D|-0---0---0---0---0---------0---3---0---------------------------------------| 
D|-0---0---0---0---0-----------0---0---0-------------------------------------| 
A|-5---0---0---3---5---------------------------------------------------------| 
D|-5---0---0---3---5---0-----------------3-----------------------------------| 
  

top 5 | roo panes
top pop music
Outras músicas do artista letras do(a) Roo Panes
Top cifras »Top artistas »
Petaxxon Comunicação Online
Cifras.com.br - Melhor e mais completo site de cifras e tablaturas do Brasil
Mais de 1 milhão de acordes de músicas cadastradas desde 2003
As informações contidas no nosso site são colaborações de seus usuários e podem conter erros, sendo assim, não nos responsabilizamos sobre nenhuma destas.
close
menos
mais
close
Cor dos acordes:

Cor da letra:

 

save
close
close
 
redimensionar