Cifras e Tablaturas
Roupa Nova

Roupa Nova

A Viagem

Ano: 2004
Album : Acustico

Cifras Cancelar Versão de Impressão Print

Roupa Nova - A Viagem

Tom: A

  			Base do Solo: |Bm A/C# D D A/C# Bm D E4 E7 (F4 F F9 F)|*(Passagem para a 
                                                         mudança de tom) 
 
Solo:Tab: 
 
e||----------------------------|----------9-----12-10-9-12-10~~-| 
B||----------------------------|-------10---10------------------| 
G||--4/7~--6-7-7/9~--7-9-9/11~-|--9/11--------------------------| 
D||----------------------------|--------------------------------| 
A||----------------------------|--------------------------------| 
E||----------------------------|--------------------------------| 
 
e||--10-12-14-10---------------------| 
B||--------------12-10-10~--12-10-9~-| 
G||----------------------------------| 
D||----------------------------------| 
A||----------------------------------| 
E||----------------------------------| 
 
e||--------13--------------13-15-17-18--20-21-22~~~-| 
B||------13--13---13-15-16--------------------------| 
G||-12/14------14-----------------------------------| 
D||-------------------------------------------------| 
A||-------------------------------------------------| 
E||-------------------------------------------------| 
 

    	

enviado porenviado por: Ptk_13
cifra enviadaCorrigida por: sem correções
logo top cifrasComente
ico música do artistaMúsicas deste artista
ico curtiuCurtiu?
ico destaqueDestaque
Petaxxon Comunicação Online

Cifras.com.br - Melhor e mais completo site de cifras e tablaturas do Brasil Mais de 1 milhão de acordes de músicas cadastradas desde 2003
As informações contidas no nosso site são colaborações de seus usuários e podem conter erros, sendo assim, não nos responsabilizamos sobre nenhuma destas.

close
menos
mais
close
Cor dos acordes:

Cor da letra:

close
Alinhar acordes a direita Alinhar acordes a esquerda Alinhar acordes em baixo Alinhar acordes no topo
close
  Mostrar todos os acordes Esconder acordes muito fáceis Esconder acordes fáceis Esconder acordes intermediários
redimensionar
glossário