Cifras e Tablaturas
Royal Blood

Royal Blood

Hook, Line & Slinker

Cifras Cancelar Versão de Impressão

Royal Blood - Hook, Line & Slinker

Tom:

  			Intro  

E|---------------------------------------------------------------------------| 
B|---------------------------------------------------------------------------| 
G|---------------------------------------------------------------------------| 
D|---------------------------------------------------------------------------|  (2x) 
A|---------------------------------5p4p3-5p4p3-5p4p3-5p3p0-5~\---------------| 
D|--5p4p3-5p4p3-5p4p3-5p4p0-5~\----------------------------------------------| 

Verso  

E|---------------------------------------------------------------------------| 
B|---------------------------------------------------------------------------| 
G|----7-5-7--------7-5-7--------7-5-7--7b-5--5-6-----------------------------| 
D|---------------------------------------------------------------------------| 
A|---------------------------------------------------------------------------| 
D|--0------------0------------0----------------------------------------------| 

E|---------------------------------------------------------------------------| 
B|---------------------------------------------------------------------------| 
G|----7-5-7--------7-5-7--------7-5-7--6b-6b-5----5--------------------------| 
D|----------------------------------------------7---7------------------------| 
A|---------------------------------------------------------------------------| 
D|--0------------0------------0----------------------------------------------| 

E|---------------------------------------------------------------------------| 
B|---------------------------------------------------------------------------| 
G|----7-5-7--------7-5-7--------7-5-7--6b-6b-5----5--------------------------| 
D|----------------------------------------------7---7------------------------| 
A|---------------------------------------------------------------------------| 
D|--5------------3------------0----------------------------------------------| 

Refrão 

E|-----------------------------------------------------------------------------------| 
B|-----------------------------------------------------------------------------------| 
G|-------14-17-----------------------------------------------------------------------| 
D|-------------17-15-17--------17b-17-15-17------------------------------------------|  2x 
A|--0-0-------------------0-0---------------17---10--10--10--10-9---5--5--3-5-3--5-3-| 
D|--0-0-------------------0-0--------------------10--10--10--10-9---5--5--3-5-3--5-3-| 

E|--------------------| 
B|--------------------| 
G|--------------------| 
D|--------------------| 
A|--5-3--5-3----------| 
D|--5-3--5-3----------| 

Verso 

E|---------------------------------------------------------------------------| 
B|---------------------------------------------------------------------------| 
G|----7-5-7--------7-5-7--------7-5-7--7b-5--5-6-----------------------------| 
D|---------------------------------------------------------------------------| 
A|---------------------------------------------------------------------------| 
D|--0------------0------------0----------------------------------------------| 

E|---------------------------------------------------------------------------| 
B|---------------------------------------------------------------------------| 
G|----7-5-7--------7-5-7--------7-5-7--6b-6b-5----5--------------------------| 
D|----------------------------------------------7---7------------------------| 
A|---------------------------------------------------------------------------| 
D|--0------------0------------0----------------------------------------------| 

E|---------------------------------------------------------------------------| 
B|---------------------------------------------------------------------------| 
G|----7-5-7--------7-5-7--------7-5-7--12p10--------10-----------------------| 
D|------------------------------------------12-10h12--12---------------------| 
A|---------------------------------------------------------------------------| 
D|--5------------3------------0----------------------------------------------| 

E|---------------------------------------------------------------------------| 
B|---------------------------------------------------------------------------| 
G|----7-5-7--------7-5-7--------7-5-7------7-5-7-----------------------------| 
D|---------------------------------------------------------------------------| 
A|---------------------------------------------------------------------------| 
D|--0------------0------------0----------0-----------------------------------| 

E|---------------------------------------------------------------------------| 
B|---------------------------------------------------------------------------| 
G|----7-5-7--------7-5-7--------7-5-7----------------------------------------| 
D|---------------------------------------------------------------------------| 
A|---------------------------------------------------------------------------| 
D|--0------------0------------0----------------------------------------------| 

E|---------------------------------------------------------------------------| 
B|---------------------------------------------------------------------------| 
G|----7-5-7--------7-5-7--------7-5-7--6b-6b-5----5--------------------------| 
D|----------------------------------------------7---7------------------------| 
A|---------------------------------------------------------------------------| 
D|--5------------3------------0----------------------------------------------| 

Pré-Refrão 

E|---------------------------------------------------------------------------| 
B|---------------------------------------------------------------------------| 
G|---------------------------------------------------------------------------| 
D|---------------------------------------------------------------------------|  (2x) 
A|---------------------------------5p4p3-5p4p3-5p4p3-5p3p0-5~\---------------| 
D|--5p4p3-5p4p3-5p4p3-5p4p0-5~\----------------------------------------------| 

Refrão 

E|-----------------------------------------------------------------------------------| 
B|-----------------------------------------------------------------------------------| 
G|-------14-17-----------------------------------------------------------------------| 
D|-------------17-15-17--------17b-17-15-17------------------------------------------|  (2x) 
A|--0-0-------------------0-0---------------17---10--10--10--10-9--5--5--3-5-3--5-3--| 
D|--0-0-------------------0-0--------------------10--10--10--10-9--5--5--3-5-3--5-3--| 

Ponte 

E|---------------------------------------------------------------------------| 
B|---------------------------------------------------------------------------| 
G|---------------------------------------------------------------------------| 
D|-0--------------------0/---------------------------------------------------| 
A|-0--(deixe soar)------0/--(w/ Pitch Shifter pedal)-------------------------| 
D|-0--------------------0/---------------------------------------------------| 

E|------15b--13h15p13--------------------------15----------------------------| 
B|------------------------------13--------12------15\------------------------| 
G|---------------------------------14-13----13-------------------------------| 
D|---------------------------------------------------------------------------| 
A|-0-0---------------------0-0-----------------------------------------------| 
D|-0-0---------------------0-0-----------------------------------------------| 

E|---------------------------------------------------------------------------| 
B|---------------------------------------------------------------------------| 
G|---------------------------------------------------------------------------| 
D|---------------------------------------------------------------------------| 
A|-10--10--10--10-9--5--5--3-5-3--5-3----------------------------------------| 
D|-10--10--10--10-9--5--5--3-5-3--5-3----------------------------------------| 

Refrão 

E|---------------------------------------------------------------------------| 
B|---------------------------------------------------------------------------| 
G|---------------------------------------------------------------------------| 
D|---------------------------------------------------------------------------| 
A|--0--0--0--0-3---0--0--0--0-3---8--8--8--8-7---10--10--5-3--5-3------------| 
D|--0--0--0--0-3---0--0--0--0-3---8--8--8--8-7---10--10--5-3--5-3------------| 

E|---------------------------------------------------------------------------| 
B|---------------------------------------------------------------------------| 
G|---------------------------------------------------------------------------| 
D|---------------------------------------------------------------------------| 
A|--5--5--5--5---3--3--3--3-2---8--8--8--8-7---10--10--5-5-5-5-5-3-----------| 
D|--5--5--5--5---3--3--3--3-2---8--8--8--8-7---10--10--5-5-5-5-5-3-----------| 

Final 

E|-------------------------------------------------------12--------------------------| 
B|-----------------------------------------------------------------------------------| 
G|------5b------5b------5b-----------------------5b---------------5b-----------------| 
D|-----------------------------------------------------------------------------------| 
A|--0-0-----0-0-----0-0----------------------0-0-----3-0------0-0--------------------| 
D|--0-0-----0-0-----0-0-----5p4p3-5p4p3-5\---0-0-----3-0------0-0-----5p4p3-5p4p3-5\-| 

E|-----------------------------------------------------------------------------------| 
B|-----------------------------------------------------------------------------------| 
G|------17\------19\------17\--------------------------------------------------------| 
D|-----------------------------------------------------------------------------0-----| 
A|--0-0------0-0------0-0------------------------------------------------------0-----| 
D|--0-0------0-0------0-0------5p4p3-5p4p3-5\--5p4p3-5p4p3 5\--7p6p5-7p6p5-7\--0-----| 
    	
fixar
fixar inscrever-se

enviado porenviado por: marcnagel
cifra enviadaCorrigida por: sem correções
logo top cifrasComente
ico música do artistaMúsicas deste artista
ico curtiuCurtiu?
ico destaqueDestaque
Petaxxon Comunicação Online

Cifras.com.br - Melhor e mais completo site de cifras e tablaturas do Brasil Mais de 1 milhão de acordes de músicas cadastradas desde 2003
As informações contidas no nosso site são colaborações de seus usuários e podem conter erros, sendo assim, não nos responsabilizamos sobre nenhuma destas.

close
menos
mais
close
Cor dos acordes:

Cor da letra:

close
Alinhar acordes a direita Alinhar acordes a esquerda Alinhar acordes em baixo Alinhar acordes no topo
close
  Mostrar todos os acordes Esconder acordes muito fáceis Esconder acordes fáceis Esconder acordes intermediários
redimensionar
glossário