Cifras e Tablaturas
Royal Blood

Royal Blood

Sleep

Cifras Cancelar Versão de Impressão
cifras

Royal Blood - Sleep

fixar na tela  
Exibindo: vídeo-aula ver clipes redimensionar

Tom:

  

D|---------------------------------------------------------------------------| 
A|---------------------------------------------------------------------------| 
F|---------------------------------------------------------------------------| 
C|----------3h5-3---5h7-5-------3h5-3---2------------------------------------|  (x8) 
G|--5---3h5-----------------3h5-------5---4----------------------------------| 
C|----0-----------0----------------------------------------------------------| 

Pré-Refrão  

D|---------------------------------------------------------------------------| 
A|---------------------------------------------------------------------------| 
F|---------------------------------------------------------------------------| 
C|----------3h5----------3h5------------3h5-3---3----------------------------| 
G|------3h5----------3h5------------3h5-------5---5\-------------------------| 
C|--8-8----------5-5----------10-10------------------------------------------| 

D|---------------------------------------------------------------------------| 
A|---------------------------------------------------------------------------| 
F|---------------------------------------------------------------------------| 
C|----------3h5----------3h5------------3h5-3---2----------------------------| 
G|------3h5----------3h5------------3h5-------5---4\-------------------------| 
C|--8-8----------5-5----------10-10------------------------------------------| 

Refrão  

D|---------------------------------------------------------------------------| 
A|---------------------------------------------------------------------------| 
F|---------------------------------------------------------------------------| 
C|---------------------------------------------------------------------------| 
G|---------------------5h8-7-5---------5-3-------------------------8-5--5-3--| 
C|--8--8-8-7-5--5--5h7---------7-0--0---------8--8-9-10--10p8--7-7-----------| 

D|---------------------------------------------------------------------------| 
A|---------------------------------------------------------------------------| 
F|---------------------------------------------------------------------------| 
C|---------------------------------------------------------------------------| 
G|---------------------5h8-7-5---------5-3-----------------------------------| 
C|--8--8-8-7-5--5--5h7---------7-0--0---------8--8-9-10--10p8--3p2-3p2-3p2-0-| 

D|---------------------------------------------------------------------------| 
A|---------------------------------------------------------------------------| 
F|---------------------------------------------------------------------------| 
C|----------3h5-3---5h7-5-------3h5-3---2------------------------------------|  
G|--5---3h5-----------------3h5-------5---4----------------------------------| 
C|----0-----------0----------------------------------------------------------| 

Verso  

D|---------------------------------------------------------------------------| 
A|---------------------------------------------------------------------------| 
F|---------------------------------------------------------------------------| 
C|----------3h5-3---5h7-5-------3h5-3---2------------------------------------|  (x4) 
G|--5---3h5-----------------3h5-------5---4----------------------------------| 
C|----0-----------0----------------------------------------------------------| 

Pré-Refrão  

D|---------------------------------------------------------------------------| 
A|---------------------------------------------------------------------------| 
F|---------------------------------------------------------------------------| 
C|----------3h5----------3h5------------3h5-3---3----------------------------| 
G|------3h5----------3h5------------3h5-------5---5\-------------------------| 
C|--8-8----------5-5----------10-10------------------------------------------| 

D|---------------------------------------------------------------------------| 
A|---------------------------------------------------------------------------| 
F|---------------------------------------------------------------------------| 
C|----------3h5----------3h5------------3h5----------------------------------| 
G|------3h5----------3h5------------3h5--------------------------------------| 
C|--8-8----------5-5----------10-10------------------------------------------| 

Refrão  

D|---------------------------------------------------------------------------| 
A|---------------------------------------------------------------------------| 
F|---------------------------------------------------------------------------| 
C|---------------------------------------------------------------------------| 
G|---------------------5h8-7-5---------5-3-------------------------8-5--5-3--| 
C|--8--8-8-7-5--5--5h7---------7-0--0---------8--8-9-10--10p8--7-7-----------| 

D|---------------------------------------------------------------------------| 
A|---------------------------------------------------------------------------| 
F|---------------------------------------------------------------------------| 
C|---------------------------------------------------------------------------| 
G|---------------------5h8-7-5---------5-3-----------------------------------| 
C|--8--8-8-7-5--5--5h7---------7-0--0---------8--8-9-10--10p8--3p2-3p2-3p2-0-| 

Ponte  

D|---------------------------------------------------------------------------------------------------| 
A|---------------------------------------------------------------------------------------------------| 
F|---------------------------------------------------------------------------------------------------| 
C|-----------------------------------------------------------------7p5-------------------------------| 
G|----------------------5--5-5-7-4--4-4\-1p0-1p0-----------------------8p7-5--5-5-4-3--3-3\----------| 
C|--5--5-5-7-8--8-8-8\-----------------------------5--5-5-7-8--8-8--------------------------3p2-3p2--| 

D|---------------------------------------------------------------------------------------------------| 
A|---------------------------------------------------------------------------------------------------| 
F|---------------------------------------------------------------------------------------------------| 
C|---------------------------------------------------------------------------------------------------| 
G|----------------------5--5-5-7-4--4-4\-1p0-1p0-----------------------------------------------------| 
C|--5--5-5-7-8--8-8-8\-----------------------------5--5-5-7-8--8-8-8\--3p2-3p2-3p2-0-----------------| 

Solo  

D|---------------------------------------------------------------------------| 
A|---------------------------------------------------------------------------| 
F|-----------------------------------------------------17--------------------| 
C|---------10h12---------11h12------------10h12-----17b---15-17\-------------| 
G|---------------------------------------------------------------------------| 
C|--8--8-8--------5--5-5--------10--10-10------------------------------------| 

D|---------------------------------------------------------------------------| 
A|---------------------------------------------------------------------------| 
F|--------------------------------------------------21-22-21----19\----------| 
C|---------10b-----------10*--------------15p14-15-----------22--------------| 
G|---------------------------------------------------------------------------| 
C|--8--8-8--------5--5-5--------10--10-10------------------------------------| 

Refrão  

D|---------------------------------------------------------------------------| 
A|---------------------------------------------------------------------------| 
F|---------------------------------------------------------------------------| 
C|---------------------------------------------------------------------------| 
G|---------------------5h8-7-5---------5-3-------------------------8-5--5-3--| 
C|--8--8-8-7-5--5--5h7---------7-0--0---------8--8-9-10--10p8--7-7-----------| 

D|---------------------------------------------------------------------------| 
A|---------------------------------------------------------------------------| 
F|---------------------------------------------------------------------------| 
C|---------------------------------------------------------------------------| 
G|---------------------5h8-7-5---------5-3-----------------------------------| 
C|--8--8-8-7-5--5--5h7---------7-0--0---------8--8-9-10--------3p2-3p2-3p2-0-| 

Final  

D|---------------------------------------------------------------------------| 
A|---------------------------------------------------------------------------| 
F|---------------------------------------------------------------------------| 
C|---------------------------------------------------------------------------| 
G|---------------------------------------------------------------------------| 
C|--0--0----0--0----0--0----0--0----0--0----0--0----0--0----0----------------| 
  

top 5 | royal blood
top rock'n roll
Outras músicas do artista letras do(a) Royal Blood
Top cifras »Top artistas »
Petaxxon Comunicação Online
Cifras.com.br - Melhor e mais completo site de cifras e tablaturas do Brasil
Mais de 1 milhão de acordes de músicas cadastradas desde 2003
As informações contidas no nosso site são colaborações de seus usuários e podem conter erros, sendo assim, não nos responsabilizamos sobre nenhuma destas.
close
menos
mais
close
Cor dos acordes:

Cor da letra:

 

save
close
close
 
redimensionar