Cifras e Tablaturas
Rush

Rush

Tom Sawyer Tablatura Verificada

Ano: 1974
Album : Moving Pictures
Compositor : (Alex Lifeson / Geddy Lee / Neil Peart / Pye Dubois)

Cifras Cancelar Versão de Impressão
cifras

Rush - Tom Sawyer

fixar na tela  
Exibindo: vídeo-aula ver clipes redimensionar
  
Intro: E5 D5 A5 C5 E5 D5 G5/A C5 

e|-------------------------------------------| 
B|-------------------------------------------| 
G|--------9---------7----------2---------5---| 
D|--------9---------7----------2---------5---| 
A|--------7---------5----------0---------3---| 
E|-0-0--0----0-0--0-----0-0--0----0-0--0-----| 

e|---------------------------------------------------------| 
B|---------------------------------------------------------| 
G|--------9---------7----------2---------5-----------------| 
D|--------9---------7----------2---------5-----------------| 
A|--------7---------5----------0---------3--/3-2-0--/3-2-0-| 
E|-0-0--0----0-0--0-----0-0--0----0-0--0-------------------| 

e|--------------------------------------------------------------------| 
B|----------------------------------------------------8---8--8--8-8-8-| 
G|--------9--9--9-9-9----------7---7--7-7-7-----------7---7--7--7-7-7-| 
D|--------9--9--9-9-9----------7---7--7-7-7-----------5---5--5--5-5-5-| 
A|--------7--7--7-7-7----------5---5--5-5-5-----------0---0--0--0-0-0-| 
E|-0-0--0--------------0-0--0----------------0-0---0------------------| 

e|---------------| 
B|---------------| 
G|---------------| 
D|---------------| 
A|-/3-2-0--------| 
E|--------/3-2-0-| 

Riff 2: 

e|-------------------------------------------------------| 
B|----0-----0--------0-----0-----0-----0-----0-----------| 
G|--4-----4--------4-----4-----4-----4-----4-----4-------| 
D|-------------------------------------------------------| 
A|---------------------0-----------3-----2-----0---------| 
E|-0----2----0-2-3-----------0----------------------3-2--| (2x) 

e|------------------------------------------------| 
B|-----0-----------0-----0-----0-----0-----0------| 
G|---4-----4-----4-----4-----4-----4-----4--------| 
D|------------------------------------------------| 
A|-------------------0-----------3-----2-----3-2--| 
E|-0-----2-----3-----------0----------------------| 

e|--------------------------------------------------------| 
B|----0-----0--------0-----0-----0-----0-----0-----0------| 
G|--4-----4--------4-----4-----4-----4-----4-----4--------| 
D|--------------------------------------------------------| 
A|---------------------0-----------3-----2-----0----------| 
E|-0----2----0-2-3-----------0----------------------------| (2x) 

Riff 3: B5 A5 G E5 

e|-------------------3---------3-------0-| 
B|-------------------3---------3-------0-| 
G|-4----4----4----2--0--4---2--0--2------| 
D|-4----4----4----2--0--4---2--0--2--2---| 
A|----------------0-----2---0-----0--2---| 
E|-------------------3---------3-----0---| 

Riff 4: E5 F#5 


e|----------------------------------------------------------------| 
B|----------------------------------------------------------------| 
G|----------------------------------------------------------------| 
D|-----2-------4-------2-------4--------2-------4-------2-------4-| 
A|---2-------4-------2-------4--------2-------4-------2-------4---| 
E|-0-----0-2-------0-----0-2--------0-----0-2-------0-----0-2-----| 

e|---------------------------------------------------------| 
B|---------------------------------------------------------| 
G|---------------------------------------------------------| 
D|-7-4-6---4----7-4-6-------------7-4-6---4----7-4-6-------| 
A|-------7---5--------7-5---------------7---5--------7-5---| 
E|------------------------7------------------------------7-| 


Solo: 

e|-------------------------------------------------| 
B|---------9-7-9-10-9--7h9p7------10-9-10-12/------| 
G|---4-7---------------------7-9-------------------| 
D|-6-----------------------------------------------| 
A|-----------------------------------------------5-| 
E|-------------------------------------------5-7---| 

e|--------------------------------------------------------------------| 
B|---------------5(ha)-7(ha)-5(ha)-5(ha)------------------------------| 
G|-9b-7p4-6-9(ha)----------------------6(ha)-6h7p6-4(ha)6(ha)/7-5(ha)-| 
D|--------------------------------------------------------------------| 
A|--------------------------------------------------------------------| 
E|--------------------------------------------------------------------| 

e|---------------------------------------12---------------------------| 
B|--14h15p14----14-17p14--15p12----12h14----14-14p12----12-15--15b17--| 
G|-----------16-----------------14-------------------14---------------| 
D|--------------------------------------------------------------------| 
A|--------------------------------------------------------------------| 
E|--------------------------------------------------------------------| 

e|---------12---16b17--16h17p16-19-17-16-17-19-17p16h17p16--19-17-16-| 
B|--15b17------------------------------------------------------------| 
G|-------------------------------------------------------------------| 
D|-------------------------------------------------------------------| 
A|-------------------------------------------------------------------| 
E|-------------------------------------------------------------------| 

e|-17-19b21-(21)(21)--19b21-(21)(21)(21)(21)(21)-19b21-(21)(21)--| 
B|---------------------------------------------------------------| 
G|---------------------------------------------------------------| 
D|---------------------------------------------------------------| 
A|---------------------------------------------------------------| 
E|---------------------------------------------------------------| 

e|--19b21-(21)(21)(21)(21)(21)--| 
B|------------------------------| 
G|------------------------------| 
D|------------------------------| 
A|------------------------------| 
E|------------------------------| 

e|-----------------------------------------------------| 
B|-----------------------------------------------------| 
G|-----------------------------------------------------| 
D|-7-4-6---4----7-4-6-------------7-4-6---4------------| 
A|-------7---5--------7-5---------------7---5------7-5-| 
E|------------------------7--------------------5-7-----| 

  

cifra enviadacorrigido por:Acelot
enviado porenviada por:halen666
top 5 | rush
top rock'n roll
Outras músicas do artista letras do(a) Rush
Top cifras »Top artistas »
Petaxxon Comunicação Online
Cifras.com.br - Melhor e mais completo site de cifras e tablaturas do Brasil
Mais de 1 milhão de acordes de músicas cadastradas desde 2003
As informações contidas no nosso site são colaborações de seus usuários e podem conter erros, sendo assim, não nos responsabilizamos sobre nenhuma destas.
close
menos
mais
close
Cor dos acordes:

Cor da letra:

 

save
close
close
 
redimensionar