Cifras e Tablaturas
Russkaja

Russkaja

Wake Me Up

Cifras Cancelar Versão de Impressão
cifras

Russkaja - Wake Me Up

fixar na tela  
Exibindo: vídeo-aula ver clipes redimensionar
  Intro/Verse/Chorus 
(all relative to the capo) 

   Am      F         C       G         Am      F         C       G 
e|---0---0---1---1-|---0---0---3---3-|---0---0---1---1-|---0---0---3---3-| 
B|---2---2---1---1-|---1---1---0---0-|---2---2---1---1-|---1---1---0---0-| 
G|---2---2---2---2-|---0---0---0---0-|---2---2---2---1-|---0---0---0---0-| 
D|-----------------|-----------------|-----------------|-----------------| 
A|-0-----------3---|-3-------2-------|-0-----------3---|-3-------2-------| 
E|-----0---1-------|-----0-------3---|-----0---1-------|-----0-------3---| (x7) 

(The last line of the Chorus before the intermezzo you can play an E instead of the last G) 

   Am      F         C       G         Am      F         C       E 
e|---0---0---1---1-|---0---0---3---3-|---0---0---1---1-|---0---0---0---0-| 
B|---2---2---1---1-|---1---1---0---0-|---2---2---1---1-|---1---1---0---0-| 
G|---2---2---2---2-|---0---0---0---0-|---2---2---2---1-|---0---0---1---1-| 
D|-----------------|-----------------|-----------------|-----------------| 
A|-0-----------3---|-3-------2-------|-0-----------3---|-3-------2-------| 
E|-----0---1-------|-----0-------3---|-----0---1-------|-----0-------0---| (x1) 

Interlude 
(Just play full chords instead of fingerpicking.) 

Am F C     G 
Am F C     G 
Am F C     G 
Am F     (last two chords are skipped) 

(Second part of intermezzo is fingerpicking again) 
   Am      F         C       G         Am      F         C       G 
e|---0---0---1---1-|---0---0---3---3-|---0---0---1---1-|---0---0---3---3-| 
B|---2---2---1---1-|---1---1---0---0-|---2---2---1---1-|---1---1---0---0-| 
G|---2---2---2---2-|---0---0---0---0-|---2---2---2---1-|---0---0---0---0-| 
D|-----------------|-----------------|-----------------|-----------------| 
A|-0-----------3---|-3-------2-------|-0-----------3---|-3-------2-------| 
E|-----0---1-------|-----0-------3---|-----0---1-------|-----0-------3---| (x4) 
  

cifra enviadasem correções
enviado porenviada por:IronPower4Ever
top 5 | russkaja
top rock'n roll
Outras músicas do artista letras do(a) Russkaja
Top cifras »Top artistas »
Petaxxon Comunicação Online
Cifras.com.br - Melhor e mais completo site de cifras e tablaturas do Brasil
Mais de 1 milhão de acordes de músicas cadastradas desde 2003
As informações contidas no nosso site são colaborações de seus usuários e podem conter erros, sendo assim, não nos responsabilizamos sobre nenhuma destas.
close
menos
mais
close
Cor dos acordes:

Cor da letra:

 

save
close
close
 
redimensionar