Cifras e Tablaturas
Rusty Clanton

Rusty Clanton

False Start

Cifras Cancelar Versão de Impressão

Rusty Clanton - False Start

Tom:

  			
Bass Line - on repeat throughout song 
e|-----------------|-----------------| 
B|-----------------|-----------------| 
G|-----------------|-----------------| 
D|-----------------|-----------------| 
A|-----------------|-----------------| 
E|-3-3-3-3-3-3-3-3-|-3-3-3-3-3-3-3-3-| 

Intro 
e|-----------------|-----------------|-----------------|-----------------|-----------------| 
B|-8---------------|-7-------5-------|-----------------|-----------------|---3---------0---| 
G|-----------------|-----------------|-----------------|-2/4\2p0---------|-----------------| 
D|-----------------|-----------------|-----------------|-----------------|-----------------| 
A|-7---------------|-5-------3-------|-----------------|-------------2---|-----------------| 
E|-----------------|-----------------|-----------------|-----------------|-----------------| 

e|-----------------|-----------------------| 
B|-1-------0-------|-----------------------| 
G|-0-------0-------|-----------------------| 
D|-3-------2-------|-------------2p0--2p0--| (x2) 
A|-5-------3-------|-----------------------| 
E|-5-------3-------|-----------------------| 

verse 1 
    pinch my arm and hope you're there,                  Finger, thumb, and dIsappear 
e|-----------------|----------------|----------------|------------------|----------------|---------------| 
B|-----------------|----------------|----------------|------------------|----------------|---------------| 
G|-----------------|----------------|----------------|------------------|----------------|---------------| 
D|-0---------------|-4--------2-----|----------------|-0----------------|-4--------2-----|---------------| 
A|-----------------|----------------|----------------|------------------|----------------|---------------| 
E|-3---------------|-5--------3-----|----------------|-3----------------|-5--------3-----|---------------| 

    call it chaos   call it right,                      it only hurts   until it rhymes        uNtil it rhymes 
e|-----------------|----------------|----------------|------------------|----------------|-------------------| 
B|-----------------|----------------|----------------|------------------|----------------|-------------------| 
G|-----------------|----------------|----------------|------------------|----------------|-------------------| 
D|-0---------------|-4--------2-----|----------------|-0----------------|-4--------2-----|-----------2p0-2p0-| 
A|-----------------|----------------|----------------|------------------|----------------|-------------------| 
E|-3---------------|-5--------3-----|----------------|-3----------------|-5--------3-----|-------------------| 

Instrumental 
e|-----------------|-----------------|-----------------|-----------------|-----------------| 
B|-8---------------|-7-------5-------|-----------------|-----------------|---3---------0---| 
G|-----------------|-----------------|-----------------|-2/4\2p0---------|-----------------| 
D|-----------------|-----------------|-----------------|-----------------|-----------------| 
A|-7---------------|-5-------3-------|-----------------|-------------2---|-----------------| 
E|-----------------|-----------------|-----------------|-----------------|-----------------| 

e|-----------------|-----------------------| 
B|-1-------0-------|-----------------------| 
G|-0-------0-------|-----------------------| 
D|-3-------2-------|-------------2p0--2p0--| (x2) 
A|-5-------3-------|-----------------------| 
E|-5-------3-------|-----------------------| 

verse 2 
    Did you look down at My hands                        try to read my callouses 
e|-----------------|----------------|----------------|------------------|----------------|---------------| 
B|-----------------|----------------|----------------|------------------|----------------|---------------| 
G|-----------------|----------------|----------------|------------------|----------------|---------------| 
D|-0---------------|-4--------2-----|----------------|-0----------------|-4--------2-----|---------------| 
A|-----------------|----------------|----------------|------------------|----------------|---------------| 
E|-3---------------|-5--------3-----|----------------|-3----------------|-5--------3-----|---------------| 

    did I see it     melt away                          remember when I loved l.a.             and didn't stay 
e|-----------------|----------------|----------------|------------------|----------------|-------------------| 
B|-----------------|----------------|----------------|------------------|----------------|-------------------| 
G|-----------------|----------------|----------------|------------------|----------------|-------------------| 
D|-0---------------|-4--------2-----|----------------|-0----------------|-4--------2-----|-----------2p0-2p0-| 
A|-----------------|----------------|----------------|------------------|----------------|-------------------| 
E|-3---------------|-5--------3-----|----------------|-3----------------|-5--------3-----|-------------------| 

Instrumental 
e|-----------------|-----------------|-----------------|-----------------|-----------------| 
B|-8---------------|-7-------5-------|-----------------|-----------------|---3---------0---| 
G|-----------------|-----------------|-----------------|-2/4\2p0---------|-----------------| 
D|-----------------|-----------------|-----------------|-----------------|-----------------| 
A|-7---------------|-5-------3-------|-----------------|-------------2---|-----------------| 
E|-----------------|-----------------|-----------------|-----------------|-----------------| 

e|-----------------|-----------------------| 
B|-1-------0-------|-----------------------| 
G|-0-------0-------|-----------------------| 
D|-3-------2-------|-------------2p0--2p0--| (x2) 
A|-5-------3-------|-----------------------| 
E|-5-------3-------|-----------------------| 

Chorus 
                        what a shame                                      how incompletE 
e|-----------------|-----------------|-----------------|---------------|-------------------------------| 
B|-----------------|-----------1---0-|-----------------|---------------|-------1---0-------------------| 
G|-----------------|-----------------|-----------------|---------------|---------------2---0-----------| 
D|-----------------|-----------0---0-|-----------------|---------------|-------0---0------------2------| 
A|-----------------|-----------------|-----------------|---------------|---------------0---------------| 
E|-3---3---3---3---|-----------------|---3---3---3---3-|---------------|------------------------3------| 

                                    with more to say                       
e|-----------------|-----------------|-----------------|-----------------|----------------| 
B|-----------------|-----------------|-----------1---0-|-----------------|----------------| 
G|-----------------|-----------------|-----------------|-----------------|----------------| 
D|-----------------|-----------------|-----------0---0-|-----------------|----------------| 
A|-----------------|-----------------|-----------------|-----------------|----------------| 
E|-3---3---3---3---|-----------------|-----------------|---3---3---3---3-|-3---3---3---3--| 

    than slides between our teeth 
e|----------------------------------| 
B|----------1---0-------------------| 
G|------------------2---0-----------| 
D|----------0---0------------2------| 
A|------------------0---------------| 
E|---------------------------3------| 

Chorus 
                      if it's a false start                             we’re just doing  our best 
e|-----------------|-----------------|-----------------|---------------|-------------------------------| 
B|-----------------|-----------1---0-|-----------------|---------------|-------1---0-------------------| 
G|-----------------|-----------------|-----------------|---------------|---------------2---0-----------| 
D|-----------------|-----------0---0-|-----------------|---------------|-------0---0------------2------| 
A|-----------------|-----------------|-----------------|---------------|---------------0---------------| 
E|-3---3---3---3---|-----------------|---3---3---3---3-|---------------|------------------------3------| 

                        & what i thought when I saw you                        
e|-----------------|-----------------|-----------------|-----------------|----------------| 
B|-----------------|-----------------|-----------1---0-|-----------------|----------------| 
G|-----------------|-----------------|-----------------|-----------------|----------------| 
D|-----------------|-----------------|-----------0---0-|-----------------|----------------| 
A|-----------------|-----------------|-----------------|-----------------|----------------| 
E|-3---3---3---3---|-----------------|-----------------|---3---3---3---3-|-3---3---3---3--| 

         i knew it when i  left.                                 when i left. 
e|----------------------------------|-----------------|-------------------| 
B|----------1---0-------------------|-----------------|-------------------| 
G|------------------2---0-----------|-----------------|-------------------| 
D|----------0---0------------2------|-----------------|-----------2p0-2p0-| 
A|------------------0---------------|-----------------|-------------------| 
E|---------------------------3------|-3---3---3---3---|-------------------| 

Instrumental 
e|-----------------|-----------------|-----------------|-----------------|-----------------| 
B|-8---------------|-7-------5-------|-----------------|-----------------|---3---------0---| 
G|-----------------|-----------------|-----------------|-2/4\2p0---------|-----------------| 
D|-----------------|-----------------|-----------------|-----------------|-----------------| 
A|-7---------------|-5-------3-------|-----------------|-------------2---|-----------------| 
E|-----------------|-----------------|-----------------|-----------------|-----------------| 

e|-----------------|-----------------------| 
B|-1-------0-------|-----------------------| 
G|-0-------0-------|-----------------------| 
D|-3-------2-------|-------------2p0--2p0--| 
A|-5-------3-------|-----------------------| 
E|-5-------3-------|-----------------------| 

e|-----------------|-----------------|-----------------|-----------------|-----------------| 
B|-8---------------|-7-------5-------|-----------------|-----------------|---3---------0---| 
G|-----------------|-----------------|-----------------|-2/4\2p0---------|-----------------| 
D|-----------------|-----------------|-----------------|-----------------|-----------------| 
A|-7---------------|-5-------3-------|-----------------|-------------2---|-----------------| 
E|-----------------|-----------------|-----------------|-----------------|-----------------| 

e|-----------------| 
B|-1-------0-------| 
G|-0-------0-------| 
D|-3-------2-------| 
A|-5-------3-------| 
E|-5-------3-------| 


************************************ 

| h   Hammer-on 
| p   Pull-off 
| /   Slide up 
| \   Slide down 

************************************ 
    	
fixar
fixar inscrever-se

enviado porenviado por: hugo_rodrigues
cifra enviadaCorrigida por: sem correções
logo top cifrasComente
ico música do artistaMúsicas deste artista
ico curtiuCurtiu?
ico destaqueDestaque
Petaxxon Comunicação Online

Cifras.com.br - Melhor e mais completo site de cifras e tablaturas do Brasil Mais de 1 milhão de acordes de músicas cadastradas desde 2003
As informações contidas no nosso site são colaborações de seus usuários e podem conter erros, sendo assim, não nos responsabilizamos sobre nenhuma destas.

close
menos
mais
close
Cor dos acordes:

Cor da letra:

close
Alinhar acordes a direita Alinhar acordes a esquerda Alinhar acordes em baixo Alinhar acordes no topo
close
  Mostrar todos os acordes Esconder acordes muito fáceis Esconder acordes fáceis Esconder acordes intermediários
redimensionar
glossário