Cifras e Tablaturas
Saint Motel

Saint Motel

Dear Dictator

Cifras Cancelar Versão de Impressão
cifras

Saint Motel - Dear Dictator

fixar na tela  
Exibindo: vídeo-aula ver clipes redimensionar
  
Intro 0:08 

E|--------|--------|--------|-----------------------| 
B|--------|--------|--------|-----------------------| 
G|--------|--------|--------|-----------------------| 
D|-2------|-2------|-4------|-4-----3---3---3---3---| 
A|--------|--------|--------|-----------------------| 
E|--------|--------|--------|-----------------------| x2 

E|--------|--------|--------|--------| 
B|--------|--------|--------|--------| 
G|--------|--------|--------|--------| 
D|--------|--------|--------|--------| 
A|--------|--------|--------|--------| 
E|-4~-----|-~------|-~------|-~------| 

E|--------|--------|--------|--------| 
B|--------|--------|--------|--------| 
G|--------|--------|-1------|-1------| 
D|-2------|-4------|--------|--------| 
A|--------|--------|--------|--------| 
E|--------|--------|--------|--------| x2 

E|---------------------| 
B|---------------------| 
G|-----------4----6----| 
D|-----------4----6----| 
A|-----------2----4----| 
E|---------------------| 

Chorus 0:56 

E|-------------------------------------------------|-----------------------------------| 
B|-------------------------------------------------|-----------------------------------| 
G|-x---x---x---6---6---6---x---x---x---6---6---6---|-x---x---x---6---6---6---4----6----| 
D|-x---x---x---6---6---6---x---x---x---6---6---6---|-x---x---x---6---6---6---4----6----| 
A|-x---x---x---4---4---4---x---x---x---4---4---4---|-x---x---x---4---4---4---2----4----| 
E|-------------------------------------------------|-----------------------------------| x3 

E|-------------------------------------------------|---------------------| 
B|-------------------------------------------------|---------------------| 
G|-x---x---x---6---6---6---x---x---x---6---6---6---|-6-------------------| 
D|-x---x---x---6---6---6---x---x---x---6---6---6---|-6-------------------| 
A|-x---x---x---4---4---4---x---x---x---4---4---4---|-4-------------------| 
E|-------------------------------------------------|---------------------| 

verse 1:10 

E|--------| 
B|--------| 
G|-6~-----| 
D|--------| 
A|--------| 
E|--------| 

E|---------------------| 
B|---------------------| 
G|-----------4/---6----| 
D|-----------4/---6----| 
A|-----------2/---4----| 
E|---------------------| 

Chorus 1:24 

E|-------------------------------------------------|-----------------------------------| 
B|-------------------------------------------------|-----------------------------------| 
G|-x---x---x---6---6---6---x---x---x---6---6---6---|-x---x---x---6---6---6---4----6----| 
D|-x---x---x---6---6---6---x---x---x---6---6---6---|-x---x---x---6---6---6---4----6----| 
A|-x---x---x---4---4---4---x---x---x---4---4---4---|-x---x---x---4---4---4---2----4----| 
E|-------------------------------------------------|-----------------------------------| x2 

verse 1:31 

E|-x---x---x-------x---x---7---7---7---7---7---7---|---------x---x---x---x---7---7---7---7---7---7---|   -| 
B|-------------------------------------------------|-------------------------------------------------|    | 
G|-------------------------------------------------|-------------------------------------------------|    | 
D|-------------------------------------------------|-------------------------------------------------|    | 
A|-------------------------------------------------|-------------------------------------------------|    | 
E|-------------------------------------------------|-------------------------------------------------|    | 
                                                                                                          | 
E|---------x---x---x---x---10--10--10--10--10--10--|-----x---x---10--10--10--9---9---9---8---8---8---|    | 
B|-------------------------------------------------|-------------------------------------------------|    | 
G|-------------------------------------------------|-------------------------------------------------|    | 
D|-------------------------------------------------|-------------------------------------------------|    | 
A|-------------------------------------------------|-------------------------------------------------|    | 
E|-------------------------------------------------|-------------------------------------------------|   -| x2 

Chorus 1:45 

E|-------------------------------------------------|-----------------------------------| 
B|-------------------------------------------------|-----------------------------------| 
G|-x---x---x---6---6---6---x---x---x---6---6---6---|-x---x---x---6---6---6---4----6----| 
D|-x---x---x---6---6---6---x---x---x---6---6---6---|-x---x---x---6---6---6---4----6----| 
A|-x---x---x---4---4---4---x---x---x---4---4---4---|-x---x---x---4---4---4---2----4----| 
E|-------------------------------------------------|-----------------------------------| x4 

Bridge 2:00 

E|-------------16----------------------16----------|-------------16-------------------------| 
B|---------17------17--------------17------17------|---------17------17------17---17---17---| 
G|-----16--------------16------16--------------16--|-----16--------------16--16---16---16---| 
D|-14----------------------14----------------------|-14----------------------14---14---14---| 
A|-------------------------------------------------|----------------------------------------| 
E|-------------------------------------------------|----------------------------------------| 

E|-------------11----------------------11----------|-------------11----------7---------| 
B|---------12------12--------------12------12------|---------12------12-----------7----| 
G|-----11--------------11------11--------------11--|-----11--------------11------------| 
D|-9-----------------------9-----------------------|-9---------------------------------| 
A|-------------------------------------------------|-----------------------------------| 
E|-------------------------------------------------|-----------------------------------| 

E|-------------16----------------------16----------|-------------16-------------------------| 
B|---------17------17--------------17------17------|---------17------17------17---17---17---| 
G|-----16--------------16------16--------------16--|-----16--------------16--16---16---16---| 
D|-14----------------------14----------------------|-14----------------------14---14---14---| 
A|-------------------------------------------------|----------------------------------------| 
E|-------------------------------------------------|----------------------------------------| 

E|-------------11----------------------11----------|-------------11----------------------11----------| 
B|---------12------12--------------12------12------|---------12------12--------------12------12------| 
G|-----11--------------11------11--------------11--|-----11--------------11------11--------------11--| 
D|-9-----------------------9-----------------------|-9-----------------------9-----------------------| 
A|-------------------------------------------------|-------------------------------------------------| 
E|-------------------------------------------------|-------------------------------------------------| 

Break 2:24 

E|-------------------------------------------------|-------------------------------------------------| 
B|-------------------------------------------------|-------------------------------------------------| 
G|-------------------------------------------------|-------------------------------------------------| 
D|-x---x---15--15--15--15--x---x---15--15--15--15--|-x---x---15--15--14--13--x---x---15--15--15--15--| 
A|-------------------------------------------------|-------------------------------------------------| 
E|-------------------------------------------------|-------------------------------------------------| 

E|-------------------------------------------------|-------------------------------------------------| 
B|-------------------------------------------------|-------------------------------------------------| 
G|-------------------------------------------------|-------------------------------------------------| 
D|-x---x---15--15--15--15--x---x---15--15--15--15--|-x---x---16--16--16--16--x---x---16--16--16--16--| 
A|-------------------------------------------------|-------------------------------------------------| 
E|-------------------------------------------------|-------------------------------------------------| 

E|----------------------------------------------|-------------------------------------------------| 
B|----------------------------------------------|-------------------------------------------------| 
G|----------------------------------------------|-------------------------------------------------| 
D|-x---x---15--15--15---x---x---15--15--15--15--|-x---x---15--15--14--13--x---x---15--15--15--15--| 
A|----------------------------------------------|-------------------------------------------------| 
E|----------------------------------------------|-------------------------------------------------| 

E|-------------------------------------------------|-------------------------------------------------| 
B|-------------------------------------------------|-------------------------------------------------| 
G|-------------------------------------------------|-------------------------------------------------| 
D|-x---x---15--15--15--15--x---x---15--15--15--15--|-x---x---15--16--15--15--x---15--15--16--14--14--| 
A|-------------------------------------------------|-------------------------------------------------| 
E|-------------------------------------------------|-------------------------------------------------| 


Bridge 2:39 

E|-------------16----------------------16----------|-------------16-------------------------|   -| 
B|---------17------17--------------17------17------|---------17------17------17---17---17---|    | 
G|-----16--------------16------16--------------16--|-----16--------------16--16---16---16---|    | 
D|-14----------------------14----------------------|-14----------------------14---14---14---|    | 
A|-------------------------------------------------|----------------------------------------|    | 
E|-------------------------------------------------|----------------------------------------|    | 
                                                                                                 | 
E|-------------11----------------------11----------|-------------11----------7---------|         | 
B|---------12------12--------------12------12------|---------12------12-----------7----|         | 
G|-----11--------------11------11--------------11--|-----11--------------11------------|         | 
D|-9-----------------------9-----------------------|-9---------------------------------|         | 
A|-------------------------------------------------|-----------------------------------|         | 
E|-------------------------------------------------|-----------------------------------|        -| x2 

E|---------------------| 
B|---------------------| 
G|-----------4----6----| 
D|-----------4----6----| 
A|-----------2----4----| 
E|---------------------| 

Chorus 3:07 

E|-------------------------------------------------|-----------------------------------| 
B|-------------------------------------------------|-----------------------------------| 
G|-x---x---x---6---6---6---x---x---x---6---6---6---|-x---x---x---6---6---6---4----6----| 
D|-x---x---x---6---6---6---x---x---x---6---6---6---|-x---x---x---6---6---6---4----6----| 
A|-x---x---x---4---4---4---x---x---x---4---4---4---|-x---x---x---4---4---4---2----4----| 
E|-------------------------------------------------|-----------------------------------| x3 

E|-------------------------------------------------|-----------------------------------| 
B|-------------------------------------------------|-----------------------------------| 
G|-x---x---x---6---6---6---x---x---x---6---6---6---|-x---x---x---6---6---6---6----5----| 
D|-x---x---x---6---6---6---x---x---x---6---6---6---|-x---x---x---6---6---6---6----5----| 
A|-x---x---x---4---4---4---x---x---x---4---4---4---|-x---x---x---4---4---4---6----3----| 
E|-------------------------------------------------|-----------------------------------| 

Post Chorus 3:21 

E|---------------------|--------|--------|--------| 
B|---------------------|--------|--------|--------| 
G|-4---------6---------|--------|--------|--------| 
D|-4----4----6----3----|-2~-----|-~------|-~------| 
A|-2----4----4----3----|-2~-----|-~------|-~------| 
E|------2---------1----|-0~-----|-~------|-~------| 

Outro 3:50 

E|--------|--------| 
B|--------|--------| 
G|-1------|-4------| 
D|-2------|-4------| 
A|-2------|-2------| 
E|--------|--------| x3 

E|-------------------------------------------------|-------------------------------------------------| 
B|-------------------------------------------------|-------------------------------------------------| 
G|-6---6---6---6---6---6---6---6---6---6---6---6---|-6---6---6---6---6---6---6-----------------------| 
D|-6---6---6---6---6---6---6---6---6---6---6---6---|-6---6---6---6---6---6---6-----------------------| 
A|-4---4---4---4---4---4---4---4---4---4---4---4---|-4---4---4---4---4---4---4-----------------------| 
E|-------------------------------------------------|-------------------------------------------------| 


Rhythm Guitar 
============= 

Intro 0:00 

E|---------------------------| 
B|---------------------------| 
G|---------------------------| 
D|---------18-----------18---| 
A|-----14-----------14-------| 
E|-16-----------16-----------| x4 

E|---------------------------------|---------------------------------|   -| 
B|---------------------------------|---------------------------------|    | 
G|---------13--------------13------|---------13--------------13------|    | 
D|---------------------------------|---------------------------------|    | 
A|-----14------14------14------14--|-----14------14------14------14--|    | 
E|-12--------------12--------------|-12--------------12--------------|    | 
                                                                          | 
E|---------------------------------|---------------------------------|    | 
B|---------------------------------|---------------------------------|    | 
G|---------13--------------13------|---------13----------------------|    | 
D|---------------------------------|---------------------------------|    | 
A|-----14------14------14------14--|-----14------14------------------|    | 
E|-14--------------14--------------|-14--------------14--14--14--14--|   -| x2 

E|---------------------------| 
B|---------------------------| 
G|---------------------------| 
D|---------18-----------18---| 
A|-----14-----------14-------| 
E|-16-----------16-----------| x4 

E|---------------------------------|---------------------------------| 
B|---------------------------------|---------------------------------| 
G|---------13--------------13------|---------13--------------13------| 
D|---------------------------------|---------------------------------| 
A|-----14------14------14------14--|-----14------14------14------14--| 
E|-12--------------12--------------|-14--------------14--------------| 

E|---------------------------|---------------------------| 
B|---------------------------|---------------------------| 
G|---------------------------|---------------------------| 
D|---------18-----------18---|---------18-----------18---| 
A|-----14-----------14-------|-----14-----------14-------| 
E|-16-----------16-----------|-16-----------16-----------| 

E|---------------------------------|---------------------------------|--------|-------------| 
B|---------------------------------|---------------------------------|--------|-------------| 
G|---------13--------------13------|---------13--------------13------|--------|-------------| 
D|---------------------------------|---------------------------------|--------|-------------| 
A|-----14------14------14------14--|-----14------14------14------14--|--------|-------------| 
E|-12--------------12--------------|-14--------------14--------------|-16-----|-~-----------| 

E|-----------------------------------| 
B|-----------------------------------| 
G|-------------------------4----6----| 
D|-------------------------4----6----| 
A|-------------------------2----4----| 
E|-----------------------------------| 

Chorus 0:56 

E|-------------------------------------------------|-----------------------------------| 
B|-------------------------------------------------|-----------------------------------| 
G|-------------------------------------------------|-------------------------4----6----| 
D|-6---6---6---6---6---6---6---6---6---6---6---6---|-6---6---6---6---6---6---4----6----| 
A|-6---6---6---6---6---6---6---6---6---6---6---6---|-6---6---6---6---6---6---2----4----| 
E|-4---4---4---4---4---4---4---4---4---4---4---4---|-4---4---4---4---4---4-------------| x3 

E|-------------------------------------------------|-----------------------------------| 
B|-------------------------------------------------|-----------------------------------| 
G|-------------------------------------------------|-----------------------------------| 
D|-6---6---6---6---6---6---6---6---6---6---6---6---|-6---------------------------------| 
A|-6---6---6---6---6---6---6---6---6---6---6---6---|-6---------------------------------| 
E|-4---4---4---4---4---4---4---4---4---4---4---4---|-4---------------------------------| 

verse 1:10 

E|-----------------------------|---------------------| 
B|-----------------------------|---------------------| 
G|-----------------------------|---------------------| 
D|-6----6----6----6---6----6---|-6----6----6----6----| 
A|-6----6----6----6---6----6---|-6----6----6----6----| 
E|-4----4----4----4---4----4---|-4----4----4----4----| 
*Follow the bass guitar's rhythm* 

E|---------------------|---------------------| 
B|-5----5----5----5----|---------------------| 
G|-4----4----4----4----|-4----4----3----3----| 
D|-2----2----2----2----|-4----4----3----3----| 
A|---------------------|-2----2----1----1----| 
E|---------------------|---------------------| 

E|-----------------------------|---------------------| 
B|-----------------------------|---------------------| 
G|-----------------------------|---------------------| 
D|-6----6----6----6---6----6---|-6----6----6----6----| 
A|-6----6----6----6---6----6---|-6----6----6----6----| 
E|-4----4----4----4---4----4---|-4----4----4----4----| 

E|---------------------|---------------------| 
B|-5----5----5----5----|---------------------| 
G|-4----4----4----4----|-4----4----3---------| 
D|-2----2----2----2----|-4----4----3---------| 
A|---------------------|-2----2----1---------| 
E|---------------------|---------------------| 

Chorus 1:24 

E|-------------------------------------------------|-----------------------------------| 
B|-------------------------------------------------|-----------------------------------| 
G|-------------------------------------------------|-------------------------4----6----| 
D|-6---6---6---6---6---6---6---6---6---6---6---6---|-6---6---6---6---6---6---4----6----| 
A|-6---6---6---6---6---6---6---6---6---6---6---6---|-6---6---6---6---6---6---2----4----| 
E|-4---4---4---4---4---4---4---4---4---4---4---4---|-4---4---4---4---4---4-------------| x2 

verse 1:31 

E|-----------------------------|---------------------| 
B|-----------------------------|---------------------| 
G|-----------------------------|---------------------| 
D|-6----6----6----6---6----6---|-6----6----6----6----| 
A|-6----6----6----6---6----6---|-6----6----6----6----| 
E|-4----4----4----4---4----4---|-4----4----4----4----| 

E|---------------------|---------------------| 
B|-5----5----5----5----|---------------------| 
G|-4----4----4----4----|-4----4----3----3----| 
D|-2----2----2----2----|-4----4----3----3----| 
A|---------------------|-2----2----1----1----| 
E|---------------------|---------------------| 

E|-----------------------------|---------------------| 
B|-----------------------------|---------------------| 
G|-----------------------------|---------------------| 
D|-6----6----6----6---6----6---|-6----6----6----6----| 
A|-6----6----6----6---6----6---|-6----6----6----6----| 
E|-4----4----4----4---4----4---|-4----4----4----4----| 

E|---------------------|---------------------| 
B|-5----5----5----5----|---------------------| 
G|-4----4----4----4----|-4----4----3---------| 
D|-2----2----2----2----|-4----4----3---------| 
A|---------------------|-2----2----1---------| 
E|---------------------|---------------------| 

Chorus 1:45 

E|-------------------------------------------------|-----------------------------------| 
B|-------------------------------------------------|-----------------------------------| 
G|-------------------------------------------------|-------------------------4----6----| 
D|-6---6---6---6---6---6---6---6---6---6---6---6---|-6---6---6---6---6---6---4----6----| 
A|-6---6---6---6---6---6---6---6---6---6---6---6---|-6---6---6---6---6---6---2----4----| 
E|-4---4---4---4---4---4---4---4---4---4---4---4---|-4---4---4---4---4---4-------------| x4 

Bridge 1:59 

E|-7---7---7---7---7---7---7---7---7---7---7---7---|-7---7---7---7---7---7---7----7----7----| 
B|-9---9---9---9---9---9---9---9---9---9---9---9---|-9---9---9---9---9---9---9----9----9----| 
G|-9---9---9---9---9---9---9---9---9---9---9---9---|-9---9---9---9---9---9---9----9----9----| 
D|-------------------------------------------------|----------------------------------------| 
A|-------------------------------------------------|----------------------------------------| 
E|-------------------------------------------------|----------------------------------------| 

E|-2---2---2---2---2---2---2---2---2---2---2---2---|-2---2---2---2---2---2---------------------| 
B|-4---4---4---4---4---4---4---4---4---4---4---4---|-4---4---4---4---4---4---------------------| 
G|-4---4---4---4---4---4---4---4---4---4---4---4---|-4---4---4---4---4---4---4-----------------| 
D|-------------------------------------------------|----------------------------------4--------| 
A|-------------------------------------------------|-------------------------------------------| 
E|-------------------------------------------------|-------------------------------------------| 

E|-7---7---7---7---7---7---7---7---7---7---7---7---|-7---7---7---7---7---7---7----7----7----| 
B|-9---9---9---9---9---9---9---9---9---9---9---9---|-9---9---9---9---9---9---9----9----9----| 
G|-9---9---9---9---9---9---9---9---9---9---9---9---|-9---9---9---9---9---9---9----9----9----| 
D|-------------------------------------------------|----------------------------------------| 
A|-------------------------------------------------|----------------------------------------| 
E|-------------------------------------------------|----------------------------------------| 

E|-2---2---2---2---2---2---2---2---2---2---2---2---|-2---2---2---2---2---2---2---2---2---2---2---2---| 
B|-4---4---4---4---4---4---4---4---4---4---4---4---|-4---4---4---4---4---4---4---4---4---4---4---4---| 
G|-4---4---4---4---4---4---4---4---4---4---4---4---|-4---4---4---4---4---4---4---4---4---4---4---4---| 
D|-------------------------------------------------|-------------------------------------------------| 
A|-------------------------------------------------|-------------------------------------------------| 
E|-------------------------------------------------|-------------------------------------------------| 

Break 2:13 

E|-------------------------------------------------| 
B|-------------------------------------------------| 
G|-------------6-----------------------6-----------| 
D|-4---4---4---6-------4---4---4---4---6-------4---| 
A|-2---2---2-----------2---2---2---2-----------2---| 
E|-------------------------------------------------| x6 

E|-------------------------------------------------| 
B|-------------------------------------------------| 
G|-4---4---4---6-------4---4---4---4---6-------4---| 
D|-4---4---4---6-------4---4---4---4---6-------4---| 
A|-2---2---2-----------2---2---2---2-----------2---| 
E|-------------------------------------------------| x7 

E|-------------------------------------------------| 
B|-------------------------------------------------| 
G|-4---4---4---6-------4---4---4---4---6-----------| 
D|-4---4---4---6-------4---4---4---4---6-----------| 
A|-2---2---2-----------2---2---2---2---------------| 
E|-------------------------------------------------| 

Bridge 2:38 

E|-7---7---7---7---7---7---7---7---7---7---7---7---|-7---7---7---7---7---7---7----7----7----|      -| 
B|-9---9---9---9---9---9---9---9---9---9---9---9---|-9---9---9---9---9---9---9----9----9----|       | 
G|-9---9---9---9---9---9---9---9---9---9---9---9---|-9---9---9---9---9---9---9----9----9----|       | 
D|-------------------------------------------------|----------------------------------------|       | 
A|-------------------------------------------------|----------------------------------------|       | 
E|-------------------------------------------------|----------------------------------------|       | 
                                                                                                    | 
E|-2---2---2---2---2---2---2---2---2---2---2---2---|-2---2---2---2---2---2---------------------|    | 
B|-4---4---4---4---4---4---4---4---4---4---4---4---|-4---4---4---4---4---4---------------------|    | 
G|-4---4---4---4---4---4---4---4---4---4---4---4---|-4---4---4---4---4---4---4-----------------|    | 
D|-------------------------------------------------|----------------------------------4--------|    | 
A|-------------------------------------------------|-------------------------------------------|    | 
E|-------------------------------------------------|-------------------------------------------|   -| x2 

Pre Chorus 2:52 

E|-------------------------------------------------|-------------------------------------------------| 
B|-------------------------------------------------|-------------------------------------------------| 
G|-------------------------------------------------|-------------------------------------------------| 
D|-------------------------------------------------|-------------------------4---4---4---6---4---4---| 
A|-6---6---6---6---6---6---6---6---6---6---6---6---|-6---6---6---6---6---6---2---2---2---4---2---2---| 
E|-4---4---4---4---4---4---4---4---4---4---4---4---|-4---4---4---4---4---4---------------------------| x3 

E|-------------------------------------------------|-----------------------------------| 
B|-------------------------------------------------|-----------------------------------| 
G|-------------------------------------------------|-------------------------4----6----| 
D|-------------------------------------------------|-------------------------4----6----| 
A|-6---6---6---6---6---6---6---6---6---6---6---6---|-6---6---6---6---6---6---2----4----| 
E|-4---4---4---4---4---4---4---4---4---4---4---4---|-4---4---4---4---4---4-------------| 

Chorus 3:06 

E|-------------------------------------------------|-----------------------------------| 
B|-------------------------------------------------|-----------------------------------| 
G|-------------------------------------------------|-------------------------4----6----| 
D|-6---6---6---6---6---6---6---6---6---6---6---6---|-6---6---6---6---6---6---4----6----| 
A|-6---6---6---6---6---6---6---6---6---6---6---6---|-6---6---6---6---6---6---2----4----| 
E|-4---4---4---4---4---4---4---4---4---4---4---4---|-4---4---4---4---4---4-------------| x3 

E|-------------------------------------------------|-----------------------------------| 
B|-------------------------------------------------|-----------------------------------| 
G|-------------------------------------------------|-----------------------------------| 
D|-6---6---6---6---6---6---6---6---6---6---6---6---|-6---6---6---6---6---6---6----5----| 
A|-6---6---6---6---6---6---6---6---6---6---6---6---|-6---6---6---6---6---6---6----5----| 
E|-4---4---4---4---4---4---4---4---4---4---4---4---|-4---4---4---4---4---4---4----3----| 

Post Chorus 3:21 

E|---------------------|--------|--------|--------| 
B|---------------------|--------|--------|--------| 
G|-4---------6---------|--------|--------|--------| 
D|-4----4----6----3----|-2------|-~------|-~------| 
A|-2----4----4----3----|-2------|-~------|-~------| 
E|------2---------1----|-0------|-~------|-~------| 

Outro 3:29 

E|---------------------------| 
B|---------------------------| 
G|---------------------------| 
D|---------18-----------18---| 
A|-----14-----------14-------| 
E|-16-----------16-----------| x6 

E|---------------------------------|---------------------------------| 
B|---------------------------------|---------------------------------| 
G|---------13--------------13------|---------13--------------13------| 
D|---------------------------------|---------------------------------| 
A|-----14------14------14------14--|-----14------14------14------14--| 
E|-12--------------12--------------|-14--------------14--------------| 

E|---------------------------| 
B|---------------------------| 
G|---------------------------| 
D|---------18-----------18---| 
A|-----14-----------14-------| 
E|-16-----------16-----------| x2 

E|---------------------------------|---------------------------------| 
B|---------------------------------|---------------------------------| 
G|---------13--------------13------|---------13--------------13------| 
D|---------------------------------|---------------------------------| 
A|-----14------14------14------14--|-----14------14------14------14--| 
E|-12--------------12--------------|-14--------------14--------------| x3 

E|-------------------------------------------------|-------------------------------------------------| 
B|-------------------------------------------------|-------------------------------------------------| 
G|-------------------------------------------------|-------------------------------------------------| 
D|-18--18--18--18--18--18--18--18--18--18--18--18--|-18--18--18--18--18--18--18----------------------| 
A|-14--14--14--14--14--14--14--14--14--14--14--14--|-14--14--14--14--14--14--14----------------------| 
E|-16--16--16--16--16--16--16--16--16--16--16--16--|-16--16--16--16--16--16--16----------------------| 


| /  slide up 
| \  slide down 
| h  hammer-on 
| p  pull-off 
| ~  vibrato 
| +  harmonic 
| x  Mute note 
=============================================================================== 
  

top 5 | saint motel
top rock'n roll
Outras músicas do artista letras do(a) Saint Motel
5.
Move
Top cifras »Top artistas »
Petaxxon Comunicação Online
Cifras.com.br - Melhor e mais completo site de cifras e tablaturas do Brasil
Mais de 1 milhão de acordes de músicas cadastradas desde 2003
As informações contidas no nosso site são colaborações de seus usuários e podem conter erros, sendo assim, não nos responsabilizamos sobre nenhuma destas.
close
menos
mais
close
Cor dos acordes:

Cor da letra:

 

save
close
close
 
redimensionar