Cifras e Tablaturas
Sam Hunt

Sam Hunt

Body Like A Backroad

Cifras Cancelar Versão de Impressão
cifras

Sam Hunt - Body Like A Backroad

fixar na tela  
Exibindo: vídeo-aula ver clipes redimensionar
  
Intro 
e|-----------------|-----------------|-----------------|-----------------| 
B|-----------------|-----------------|-----------------|-----------------| 
G|--5/7-5----------|--5/7-5----------|--5/7-5----------|-----------------| 
D|---------3/5--3--|---------5/7-----|---------3/5--3--|----5--5/7-5--3--| 
A|-----------------|-----------------|-----------------|--5--------------| 
E|-----------------|-----------------|-----------------|-----------------| 

Entire Song Background 
    F         C        Dm         C         F         C         F         Repeat 
e|--1----x---------x---------x---------x----1----x---------x----1---------------------| 
B|--1----x----5----x----7----x----5----x----1----x----5----x----1---------------------| 
G|--2----x----5----x----7----x----5----x----2----x----5----x----2---------------------| 
D|--3----x----3----x----5----x----3----x----3----x----3----x----3---------------------| 
A|--3----x---------x---------x---------x----3----x---------x----3---------------------| 
E|--1----x---------x---------x---------x----1----x---------x----1---------------------| 

 
  

cifra enviadasem correções
enviado porenviada por:aman_claudino
top 5 | sam hunt
top rock'n roll
Outras músicas do artista letras do(a) Sam Hunt
Top cifras »Top artistas »
Petaxxon Comunicação Online
Cifras.com.br - Melhor e mais completo site de cifras e tablaturas do Brasil
Mais de 1 milhão de acordes de músicas cadastradas desde 2003
As informações contidas no nosso site são colaborações de seus usuários e podem conter erros, sendo assim, não nos responsabilizamos sobre nenhuma destas.
close
menos
mais
close
Cor dos acordes:

Cor da letra:

 

save
close
close
 
redimensionar