Cifras e Tablaturas
Sam Smith

Sam Smith

Scars

Cifras Cancelar Versão de Impressão
cifras

Sam Smith - Scars

fixar na tela  
Exibindo: vídeo-aula ver clipes redimensionar

Tom:

  
Intro 
   1 e + a 2 e + a 3 e + a 4 e + a   1 e + a 2 e + a 3 e + a 4 e + a  
e|---------------------------------|---------------------------------| 
B|---------------------------------|-------------7~------------------| 
G|-7~--------------6~--------------|-4~------------------------------| 
D|---------------------------------|---------------------------------| 
A|---------------------------------|-------------5~------------------| 
D|-9~--------------7~--------------|-5~------------------------------| 

   1 e + a 2 e + a 3 e + a 4 e + a   1 e + a 2 e + a 3 e + a 4 e + a  
e|---------------------------------|---------------------------------| 
B|---------------------------------|---------------------------------| 
G|-7~--------------6~--------------|-4-----2-------------------------| 
D|---------------------------------|-------------2h4~----------------| 
A|---------------------------------|---------------------------------| 
D|-9~--------------7~--------------|-5---------0---------------------| 

verse 1 
   1 e + a 2 e + a 3 e + a 4 e + a   1 e + a 2 e + a 3 e + a 4 e + a  \ 
e|---------------------------------|---------------------------------| | 
B|---------------------------------|---------------------------------| | 
G|-7~--------------6~--------------|-2~----------4~------------------| | 
D|---------------------------------|---------------------------------| | 
A|---------------------------------|---------------------------------| | 
D|-9~--------------7~--------------|-4~----------5~------------------| | 
                                                                       | - 2x 
   1 e + a 2 e + a 3 e + a 4 e + a   1 e + a 2 e + a 3 e + a 4 e + a   | 
e|---------------------------------|---------------------------------| | 
B|---------------------------------|---------------------------------| | 
G|-2~----------4~------------------|-2~----------6~------------------| | 
D|---------------------------------|---------------------------------| | 
A|---------------------------------|---------------------------------| | 
D|-4~----------5~------------------|-4~----------7~------------------|/ 
                                                                       
   1 e + a 2 e + a 3 e + a 4 e + a   1 e + a 2 e + a 3 e + a 4 e + a   
e|---------------------------------|---------------------------------| 
B|---------------------------------|-------------7-----------7-------| 
G|-7-------7-----7-7\6-6---6-------|-4-----4-------------------------| 
D|---------------------------------|---------0-----------------------| 
A|---------------------------------|-------------5-------5-----------| 
D|-9---9-------9-------7---7-------|-5---5---------------------------|  
                                                                       
   1 e + a 2 e + a 3 e + a 4 e + a   1 e + a 2 e + a 3 e + a 4 e + a   
e|---------------------------------|---------------------------------| 
B|---------------------------------|---------------------------------| 
G|-7-------7-----7-7\6-6---6-------|-4-----2-------------------------| 
D|---------------------------------|-----0-------4-----------4-------| 
A|---------------------------------|---------0-----------------------| 
D|-9---9-------9-------7---7-------|-5-----------0-------0-------0---| 

   1 e + a 2 e + a 3 e + a 4 e + a   1 e + a 2 e + a 3 e + a 4 e + a   
e|---------------------------------|---------------------------------| 
B|---------------------------------|-------------7-----------7-------| 
G|-7-------7-----7-7\6-6---6-------|-4-----4-------------------------| 
D|---------------------------------|---------0-----------------------| 
A|---------------------------------|-------------5-------5-----------| 
D|-9---9-------9-------7---7-------|-5---5---------------------------|  
                                                                       
   1 e + a 2 e + a 3 e + a 4 e + a   1 e + a 2 e + a 3 e + a 4 e + a   
e|---------------------------------|---------------------------------| 
B|---------------------------------|---------------------------------| 
G|-2~--------------4~--------------|-6~------------------------------| 
D|---------0---------------0-------|---------------------------------| 
A|-----0-------0-------2-------2---|---------------------------------| 
D|-4~--------------5~--------------|-7~------------------------------| 

Interlude 1 
   1 e + a 2 e + a 3 e + a 4 e + a   1 e + a 2 e + a 3 e + a 4 e + a   
e|---------------------------------|---------------------------------| 
B|---------------------------------|---------------------------------| 
G|-7-------7-----7-7\6-6---6-------|-2-----2-----4-----------4-------| 
D|---------------------------------|-----0---------------------------| 
A|---------------------------------|---------------------------------| 
D|-9---9-------9-------7---7---7---|-4-------4---5-------5-------5---|  
                                                                       
   1 e + a 2 e + a 3 e + a 4 e + a   1 e + a 2 e + a 3 e + a 4 e + a   
e|---------------------------------|---------------------------------| 
B|---------------------------------|---------------------------------| 
G|-2-------2-----2-2/4-4---4-------|-2-----2-----6-----------6-------| 
D|-----0---------------------------|-----0---------------------------| 
A|---------------------------------|---------------------------------| 
D|-4-----------4-------5---5---5---|-4-------4---7-------7-------7---| 

verse 2 
   1 e + a 2 e + a 3 e + a 4 e + a   1 e + a 2 e + a 3 e + a 4 e + a  \ 
e|---------------------------------|---------------------------------| | 
B|---------------------------------|---------------------------------| | 
G|-7-------7-----7-7\6-6---6-------|-2-----2-----4-----------4-------| | 
D|---------------------------------|-----0---------------------------| | 
A|---------------------------------|---------------------------------| | 
D|-9---9-------9-------7---7-------|-4-------4---5-------5-------5---| | 
                                                                       | - 2x 
   1 e + a 2 e + a 3 e + a 4 e + a   1 e + a 2 e + a 3 e + a 4 e + a   | 
e|---------------------------------|---------------------------------| | 
B|---------------------------------|---------------------------------| | 
G|-2-------2-----2-2/4-4---4-------|-2-----2-----6-----------6-------| | 
D|-----0---------------------------|-----0---------------------------| | 
A|---------------------------------|---------------------------------| | 
D|-4-----------4-------5---5---5---|-4-------4---7-------7-------7---|/ 

   1 e + a 2 e + a 3 e + a 4 e + a   1 e + a 2 e + a 3 e + a 4 e + a   
e|---------------------------------|---------------------------------| 
B|---------------------------------|-------------7-----------7-------| 
G|-7-------7-----7-7\6-6---6-------|-4-----4-------------------------| 
D|---------------------------------|---------0-----------------------| 
A|---------------------------------|-------------5-------5-------5---| 
D|-9---9-------9-------7---7---7---|-5---5---------------------------|  
                                                                       
   1 e + a 2 e + a 3 e + a 4 e + a   1 e + a 2 e + a 3 e + a 4 e + a   
e|---------------------------------|---------------------------------| 
B|---------------------------------|---------------------------------| 
G|-7-------7-----7-7\6-6---6-------|-4-----2-------------------------| 
D|---------------------------------|-----0-------2h4---------4-------| 
A|---------------------------------|---------0-----------------------| 
D|-9---9-------9-------7---7---7---|-5-----------0-------0-------0---| 

   1 e + a 2 e + a 3 e + a 4 e + a   1 e + a 2 e + a 3 e + a 4 e + a   
e|---------------------------------|---------------------------------| 
B|---------------------------------|-------------7-----------7-------| 
G|-7-------7-----7-7\6-6---6-------|-4-----4-------------------------| 
D|---------------------------------|---------0-----------------------| 
A|---------------------------------|-------------5-------5-------5---| 
D|-9---9-------9-------7---7---7---|-5---5---------------------------|  
                                                                       
   1 e + a 2 e + a 3 e + a 4 e + a   1 e + a 2 e + a 3 e + a 4 e + a   
e|---------------------------------|---------------------------------| 
B|---------------------------------|---------------------------------| 
G|-2~--------------4~--------------|-6~------------------------------| 
D|---------0---------------0-------|---------------------------------| 
A|-----0-------0-------2-------2---|---------------------------------| 
D|-4~--------------5~--------------|-7~------------------------------| 

Interlude 2 
   1 e + a 2 e + a 3 e + a 4 e + a   1 e + a 2 e + a 3 e + a 4 e + a  \ 
e|---------------------------------|---------------------------------| | 
B|---------------------------------|---------------------------------| | 
G|-7-------7-----7-7\6-6---6-------|-2-----2-----4-----------4-------| | 
D|---------------------------------|-----0---------------------------| | 
A|---------------------------------|---------------------------------| | 
D|-9---9-------9-------7---7---7---|-4-------4---5-------5-------5---| | 
                                                                       | - 2x 
   1 e + a 2 e + a 3 e + a 4 e + a   1 e + a 2 e + a 3 e + a 4 e + a   | 
e|---------------------------------|---------------------------------| | 
B|---------------------------------|---------------------------------| | 
G|-2-------2-----2-2/4-4---4-------|-2-----2-----6-----------6-------| | 
D|-----0---------------------------|-----0---------------------------| | 
A|---------------------------------|---------------------------------| | 
D|-4-----------4-------5---5---5---|-4-------4---7-------7-----------|/ 

Outro 
   1 e + a 2 e + a 3 e + a 4 e + a   1 e + a 2 e + a 3 e + a 4 e + a  
e|---------------------------------|---------------------------------| 
B|---------------------------------|-------------7~------------------| 
G|-7~--------------6~--------------|-4~------------------------------| 
D|---------------------------------|---------------------------------| 
A|---------------------------------|-------------5~------------------| 
D|-9~--------------7~--------------|-5~------------------------------| 

   1 e + a 2 e + a 3 e + a 4 e + a   1 e + a 2 e + a 3 e + a 4 e + a  
e|---------------------------------|---------------------------------| 
B|---------------------------------|---------------------------------| 
G|-7~--------------6~--------------|-4-----2-------------------------| 
D|---------------------------------|-------------2h4~----------------| 
A|---------------------------------|---------------------------------| 
D|-9~--------------7~--------------|-5---------0---------------------| 

   1 e + a 2 e + a 3 e + a 4 e + a   1 e + a 2 e + a 3 e + a 4 e + a  
e|---------------------------------|---------------------------------| 
B|---------------------------------|-------------7~------------------| 
G|-7~--------------6~--------------|-4~------------------------------| 
D|---------------------------------|---------------------------------| 
A|---------------------------------|-------------5~------------------| 
D|-9~--------------7~--------------|-5~------------------------------| 

   1 e + a 2 e + a 3 e + a 4 e + a   1 e + a 2 e + a 3 e + a 4 e + a  
e|---------------------------------|---------------------------------| 
B|---------------------------------|---------------------------------| 
G|-2~--------------4~--------------|-6~------------------------------| 
D|---------------------------------|---------------------------------| 
A|---------------------------------|---------------------------------| 
D|-4~--------------5~--------------|-7~------------------------------| 


************************************ 

| h   Hammer-on 
| /   Slide up 
| \   Slide down 
| ~   Vibrato 

************************************ 
  

top 5 | sam smith
top rock'n roll
Outras músicas do artista letras do(a) Sam Smith
Top cifras »Top artistas »
Petaxxon Comunicação Online
Cifras.com.br - Melhor e mais completo site de cifras e tablaturas do Brasil
Mais de 1 milhão de acordes de músicas cadastradas desde 2003
As informações contidas no nosso site são colaborações de seus usuários e podem conter erros, sendo assim, não nos responsabilizamos sobre nenhuma destas.
close
menos
mais
close
Cor dos acordes:

Cor da letra:

 

save
close
close
 
redimensionar