Cifras e Tablaturas
Sasquatch

Sasquatch

The Judge

Cifras Cancelar Versão de Impressão
cifras

Sasquatch - The Judge

fixar na tela  
Exibindo: vídeo-aula ver clipes redimensionar
  
 Intro 

eb|-------------------------------------------------------------------| 
Bb|-------------------------------------------------------------------| 
Gb|-------------------------------------------------------------------| 
Db|-------------------------------------------------------------------| x 2 
Ab|----------3/5--3--5--3~~~--3\---------------------------3---3-5----| 
Db|--0---0-------------------------0-0h3--3-0h5--5-5p0-3-5---5--------| 

eb|-------------------------------------------------------------------| 
Bb|-------------------------------------------------------------------| 
Gb|-------------------------------------------------------------------| 
Db|--0---0---10-12-10-12-10~~~-10\---0-0h3--3-0h5--5------------------| 
Ab|--0---0---10-12-10-12-10~~~-10\---0-0h3--3-0h5--5---------3---3-5--| 
Db|--0---0---10-12-10-12-10~~~-10\---0-0h3--3-0h5--5-5p0-3-5---5------| 

eb|-------------------------------------------------------------------| 
Bb|-------------------------------------------------------------------| 
Gb|-------------------------------------------------------------------| 
Db|--0---0---10-12-10-12-10~~~-10\---0-0h3--3-0h5--5------------------|  
Ab|--0---0---10-12-10-12-10~~~-10\---0-0h3--3-0h5--5---------3--------| 
Db|--0---0---10-12-10-12-10~~~-10\---0-0h3--3-0h5--5-5p0-3-5---5-3-0--| 


 Verse 

eb|------------------------------------------------------------------------------------------------| 
Bb|------------------------------------------------------------------------------------------------| 
Gb|------------------------------------------------------------------------------------------------| 
Db|--0---0---10-12-10-12--10-10-10-10-10-10--10-12--10-10-10-10-10-10--10-12--10-10-10-10-10--0-3--| x 4 
Ab|--0---0---10-12-10-12--10-10-10-10-10-10--10-12--10-10-10-10-10-10--10-12--10-10-10-10-10--0-3--| 
Db|--0---0---10-12-10-12--10-10-10-10-10-10--10-12--10-10-10-10-10-10--10-12--10-10-10-10-10--0-3--| 


 Chorus 

eb|-------------------------------------------------------------------| 
Bb|-------------------------------------------------------------------| 
Gb|-------------------------------------------------------------------| 
Db|--0---0---10-12-10-12-10~~~-10\---0-0h3--3-0h5--5------------------| x 3 
Ab|--0---0---10-12-10-12-10~~~-10\---0-0h3--3-0h5--5---------3---3-5--| 
Db|--0---0---10-12-10-12-10~~~-10\---0-0h3--3-0h5--5-5p0-3-5---5------| 

eb|-------------------------------------------------------------------| 
Bb|-------------------------------------------------------------------| 
Gb|-------------------------------------------------------------------| 
Db|--0---0---10-12-10-12-10~~~-10\---0-0h3--3-0h5--5------------------|  
Ab|--0---0---10-12-10-12-10~~~-10\---0-0h3--3-0h5--5---------3--------| 
Db|--0---0---10-12-10-12-10~~~-10\---0-0h3--3-0h5--5-5p0-3-5---5-3-0--| 


 Verse 

eb|------------------------------------------------------------------------------------------------| 
Bb|------------------------------------------------------------------------------------------------| 
Gb|------------------------------------------------------------------------------------------------| 
Db|--0---0---10-12-10-12--10-10-10-10-10-10--10-12--10-10-10-10-10-10--10-12--10-10-10-10-10--0-3--| x 4 
Ab|--0---0---10-12-10-12--10-10-10-10-10-10--10-12--10-10-10-10-10-10--10-12--10-10-10-10-10--0-3--| 
Db|--0---0---10-12-10-12--10-10-10-10-10-10--10-12--10-10-10-10-10-10--10-12--10-10-10-10-10--0-3--| 


 Chorus 

eb|-------------------------------------------------------------------| 
Bb|-------------------------------------------------------------------| 
Gb|-------------------------------------------------------------------| 
Db|--0---0---10-12-10-12-10~~~-10\---0-0h3--3-0h5--5------------------| x 3 
Ab|--0---0---10-12-10-12-10~~~-10\---0-0h3--3-0h5--5---------3---3-5--| 
Db|--0---0---10-12-10-12-10~~~-10\---0-0h3--3-0h5--5-5p0-3-5---5------| 

eb|-------------------------------------------------------------------| 
Bb|-------------------------------------------------------------------| 
Gb|-------------------------------------------------------------------| 
Db|--0---0---10-12-10-12-10~~~-10\---0-0h3--3-0h5--5------------------|  
Ab|--0---0---10-12-10-12-10~~~-10\---0-0h3--3-0h5--5---------3--------| 
Db|--0---0---10-12-10-12-10~~~-10\---0-0h3--3-0h5--5-5p0-3-5---5-3-0--| 


 Solo 

eb|-------------------------------------------------------------------| 
Bb|---------13p10-----------------------------------------------------| 
Gb|---------------12h14p12p10-----------------------------10----10----| 
Db|---------------------------12~~~~~~-g12-12p10----10-12----12----12-| 
Ab|---------------------------------------------h12-------------------| 
Db|-------------------------------------------------------------------| 

eb|----------------------------------------------------------------------------------------------------| 
Bb|---------------------------------------------------13-----------------------------------------------| 
Gb|--10hb-----------12-12hbr-10h12-12--10-10~~~-12fb(hold)12brp10-----10-------------------10----10----| 
Db|-------12~~~--10------------------------------------------------12----12-10----10-12-12----12----12-| 
Ab|----------------------------------------------------------------------------12----------------------| 
Db|----------------------------------------------------------------------------------------------------| 
                                                     
eb|-------------------------------------------------------------------------------------------------------| 
Bb|----------------------------------10---------------------------------------------------------------13--| 
Gb|--10hb--10hb--10hbr----------9hb(hold)9br-9p7-7-----------------------------10----12/14---14-12-14-----| 
Db|-------------------h12-10-12--------------------9-----7--9\7--------10/12------12----------------------| 
Ab|--------------------------------------------------------------10/12------------------------------------| 
Db|-------------------------------------------------------------------------------------------------------| 

eb|-------------------------------------------------------------------------------------------------------| 
Bb|--13fb-13fb-pbr13-13-10-------13-13--------------/13------13----13----13-15fbrp13-----13-15-13-15-13-15| 
Gb|-------------------------12hb(hold)-12br---12----/12---14----14----14------------h14-------------------| 
Db|----------------------------------------------14-------------------------------------------------------| 
Ab|-------------------------------------------------------------------------------------------------------| 
Db|-------------------------------------------------------------------------------------------------------| 

eb|-------------------------------------------------------------------------------------------------------| 
Bb|-g13-h15~~~~~~~15~~~~~~~~~~~~~~~~~~~~~~~~~15~~~~~~~~~~~~~~~~~~~~~~15~~~~~~~~~~~~~~~15fbrp13-----13-15--| 
Gb|-------------------------------------------------------------------------------------------h14---------| 
Db|-------------------------------------------------------------------------------------------------------| 
Ab|-------------------------------------------------------------------------------------------------------| 
Db|-------------------------------------------------------------------------------------------------------| 

eb|-------------------------------------------------------------------------------------------------------| 
Bb|--13~~~~~~~~~~~~~~~~~~~~~~~~~~~~~~~~~~~~~~~~~~~~~~~~~~-g10-h13---10-13-10--10-9------------------------| 
Gb|--------------------------------------------------------------------------------10-12--10h12p12--------| 
Db|------------------------------------------------------------------------------------------------12-10--| 
Ab|-------------------------------------------------------------------------------------------------------| 
Db|-------------------------------------------------------------------------------------------------------| 

eb|-------------------------------------------------------------------------------------------------------| 
Bb|-------------------------------------------------------------------------------------------------------| 
Gb|-------------------------------------------------------------------------------------------------------| 
Db|--12~~~~~~~~~~~~~~~~~~~~~~~~~~~~~~~~~~~~~~~~~~g10-h12~~~~g10-/12-12--10--------------------------------| 
Ab|-----------------------------------------------------------------------h12--12\10--8/10--10-10-8-------| 
Db|-------------------------------------------------------------------------------------------------12-12-| 

eb|-------------------------------------------------------------------------------------------------------| 
Bb|-------------------------------------------------------------------------------------------------------| 
Gb|-------------------------------------------------------------------------------------------------------| 
Db|--------------------------------------------------------------------------------5p0-3h5--5p0-3p0--0----| 
Ab|--------------------------------------------------------------------------------5p0-3h5--5p0-3p0--0----| 
Db|--12~~~~~~~~~~~~~~~~~~~~~~~~~~~~~~~~~~~~~~~~~~~~~~~~~~p10h12-12-----p10h12-12---5p0-3h5--5p0-3p0--0----| 


 Outro 

eb|-------------------------------------------------| 
Bb|-------------------------------------------------| 
Gb|-------------------------------------------------| 
Db|-------------------------------------------------| x 2 
Ab|--------------5----------------5-----------------| 
Db|--0h3p0--3/5-------0h3p0--3/5-------0h30--3~~~---| 

eb|----------------------------------------| 
Bb|----------------------------------------| 
Gb|------------7--------------7------------| 
Db|--3p0--3/5--7----3p0--3/5--7----3p0--3--| x 3 
Ab|--3p0--3/5-------3p0--3/5-------3p0--3--| 
Db|--3p0--3/5-------3p0--3/5-------3p0--3--| 

eb|------------------------------------------| 
Bb|------------------------------------------| 
Gb|------------7--------------7--------------| 
Db|--3p0--3/5--7----3p0--3/5--7----3p0--5p0--|  
Ab|--3p0--3/5-------3p0--3/5-------3p0--5p0--| 
Db|--3p0--3/5-------3p0--3/5-------3p0--5p0--| 

eb|----------------------------------------------------|----------------------------------------------------| 
Bb|----------------------------------------------------|----------------------------------------------------| 
Gb|----------------------------------------------------|----------------------------------------------------| 
Db|----------------------------------------------------|-------------------------------------17hbrp15-------|  
Ab|----------------17~~--17p15----15-15------15--------|--------------17---17p15----15-17p15----------17-15-| 
Db|--15p12--15/17--------------17---------17----17/15--|--15-12-15/17------------17-------------------------| 

eb|----------------------------------------------------|----------------------------------------------------| 
Bb|----------------------------------------------------|----------------------------------------------------| 
Gb|----------------------------------------------------|----------------------------------------------------| 
Db|----------------------------------------------------|-------------------------------------17hbrp15-------|  
Ab|----------------17~~--17p15----15-15------15--------|--------------17---17p15----15-17p15----------17-15-| 
Db|--15p12--15/17--------------17---------17----17/15--|--15-12-15/17------------17-------------------------| 

eb|----------------------------------------| 
Bb|----------------------------------------| 
Gb|------------7--------------7------------| 
Db|--3p0--3/5--7----3p0--3/5--7----3p0--3--| x 3 
Ab|--3p0--3/5-------3p0--3/5-------3p0--3--| 
Db|--3p0--3/5-------3p0--3/5-------3p0--3--| 

eb|------------------------------------------| 
Bb|------------------------------------------| 
Gb|------------7--------------7--------------| 
Db|--3p0--3/5--7----3p0--3/5--7----3p0--5p0--|  
Ab|--3p0--3/5-------3p0--3/5-------3p0--5p0--| 
Db|--3p0--3/5-------3p0--3/5-------3p0--5p0--| 

eb|------------------------------------------------------| 
Bb|------------------------------------------------------| 
Gb|------------------------------------------------------| 
Db|--12-12-12-12-12-12-12-12----12-12-12-12-12-12-12-12--| x 8 
Ab|--12-12-12-12-12-12-12-12----12-12-12-12-12-12-12-12--| 
Db|--12-12-12-12-12-12-12-12----12-12-12-12-12-12-12-12--| 

eb|----------| 
Bb|----------| 
Gb|----------| 
Db|----------| let ring 
Ab|----------| 
Db|--12------| 



************************************ 

| g    Grace note 
| h    Hammer-on 
| p    Pull-off 
| b    Bend 
| br   Bend release 
| pbr  Pre-bend release 
| /    Slide up 
| \    Slide down 
| ~    Vibrato 

************************************ 
  

top 5 | sasquatch
top rock'n roll
Outras músicas do artista letras do(a) Sasquatch
Top cifras »Top artistas »
Petaxxon Comunicação Online
Cifras.com.br - Melhor e mais completo site de cifras e tablaturas do Brasil
Mais de 1 milhão de acordes de músicas cadastradas desde 2003
As informações contidas no nosso site são colaborações de seus usuários e podem conter erros, sendo assim, não nos responsabilizamos sobre nenhuma destas.
close
menos
mais
close
Cor dos acordes:

Cor da letra:

 

save
close
close
 
redimensionar