Cifras e Tablaturas
Satyricon

Satyricon

Deep Calleth Upon Deep

Cifras Cancelar Versão de Impressão
cifras

Satyricon - Deep Calleth Upon Deep

fixar na tela  
Exibindo: vídeo-aula ver clipes redimensionar
  
Intro 
4/4 
  Gtr 1, 2   
    H              (E)  Q.               H              (E)  Q. 
a|------------------------------------|------------------------------------| 
E|------------------------------------|------------------------------------| 
C|------------------------------------|------------------------------------| 
G|------------------------------------|------------------------------------| 
D|--7-------------------8-------------|--7-------------------8-------------| 
A|--0---------------------------------|--0---------------------------------| 

    H               H                    H            +E   S  S  E   E 
a|------------------------------------|------------------------------------| 
E|------------------------------------|------------------------------------| 
C|------------------13----------------|--------------------16-16-16--17----| 
G|------------------x-----------------|--------------------x--x--x---x-----| 
D|--7---------------11----------------|--7-----------------14-14-14--15----| 
A|--0---------------------------------|--0---------------------------------| 

    H               H                    E  (H)              E   E   E 
a|------------------------------------|------------------------------------| 
E|------------------------------------|------------------------------------| 
C|------------------13----------------|------------------------------------| 
G|------------------x-----------------|----------------------10--9---8-----| 
D|--7---------------11----------------|--7-------------------x---x---x-----| 
A|--0---------------------------------|--0-------------------8---7---6-----| 

    Q       E   E   Q       Q            Q       E   E   E   E   E   E 
a|------------------------------------|------------------------------------| 
E|o-----------------------------------|------------------------------------| 
C|----------12--13----------16--------|----------12--13------17--16--15----| 
G|----------x---x-----------x---------|----------x---x-------x---x---x-----| 
D|o---------10--11----------14--------|----------10--11------15--14--13----| 
A|--0---------------0-----------------|--0---------------0-----------------| 

    Q       E   E   Q       Q           (Q)      Q      (E)  S  S  E    E     (x2) 
a|------------------------------------|---------------------------------------| 
E|------------------------------------|--------------------------------------o| 
C|----------12--13----------16--------|----------15----------14-14-14---13----| 
G|----------x---x-----------x---------|----------x-----------x--x--x----x-----| 
D|----------10--11----------14--------|----------13----------12-12-12---11---o| 
A|--0---------------0-----------------|---------------------------------------| 

    Q       E   E   Q       Q            Q       E   E   E   E   E   E 
a|------------------------------------|------------------------------------| 
E|------------------------------------|------------------------------------| 
C|------------------------------------|----------12--13------17--16--15----| 
G|----------5---6-----------9---------|----------x---x-------x---x---x-----| 
D|----------x---x-----------x---------|----------10--11------15--14--13----| 
A|--0-------3---4---0-------7---------|--0---------------0-----------------| 

    Q       E   E   Q       Q           (Q)      Q      (E)  S  S  E    E 
a|------------------------------------|---------------------------------------| 
E|------------------------------------|---------------------------------------| 
C|----------12--13----------16--------|----------15----------14-14-14---13----| 
G|----------x---x-----------x---------|----------x-----------x--x--x----x-----| 
D|----------10--11----------14--------|----------13----------12-12-12---11----| 
A|--0---------------0-----------------|---------------------------------------| 

   (Q)      S S S S E   E   E   E       (Q)      S S S S E   E   E   E 
a|------------------------------------|------------------------------------| 
E|------------------------------------|------------------------------------| 
C|------------------------------------|------------------------------------| 
G|----------9-9-9-9-9---8---8---9-----|----------5-5-5-5-5---4---4---8-----| 
D|----------x-x-x-x-x---x---x---x-----|----------x-x-x-x-x---x---x---x-----| 
A|----------7-7-7-7-7---6---6---7-----|----------3-3-3-3-3---2---2---6-----| 

   (Q)      S S S S E   E   E   E        E   E   E   E   E   E   E   E 
a|------------------------------------|------------------------------------| 
E|------------------------------------|------------------------------------| 
C|------------------------------------|----------9---8-------8---9---11----| 
G|----------9-9-9-9-9---8---8---9-----|------9-----------10----------------| 
D|----------x-x-x-x-x---x---x---x-----|--7---------------------------------| 
A|----------7-7-7-7-7---6---6---7-----|------------------------------------| 


verse 1 
  Gtr 1, 2 
    E   E   E   E   E   E   E   E        E   E   E   E   E   E   E   E 
a|------------------------------------|------------------------------------| 
E|o-----------------------------------|------------------------------------| 
C|------------------------------------|------------------------------------| 
G|------9-------9---10--10--10-/13----|------9-------9---10--10--10-\9-----| 
D|o-7-------7-------x---x---x---x-----|--7-------7-------x---x---x---x-----| 
A|--0-------0-------8---8---8--/11----|--0-------0-------8---8---8--\7-----| 

    E   E   E   E   E   E   E   E        E   E   E   E   E   E   E   E     (x2) 
a|------------------------------------|------------------------------------| 
E|------------------------------------|-----------------------------------o| 
C|------------------------------------|--------------8-------8---9---11----| 
G|------9-------9---10--10--10-/13----|------9-----------10----------------| 
D|--7-------7-------x---x---x---x-----|--7-------7------------------------o| 
A|--0-------0-------8---8---8--/11----|--0-------0-------------------------| 

  Gtr 1 
   (Q)      S S S S E   E   E   E       (Q)      S S S S E   E   E   E 
a|------------------------------------|------------------------------------| 
E|------------------------------------|------------------------------------| 
C|------------------------------------|------------------------------------| 
G|----------9-9-9-9-9---8---8---9-----|----------5-5-5-5-5---4---4---8-----| 
D|----------x-x-x-x-x---x---x---x-----|----------x-x-x-x-x---x---x---x-----| 
A|----------7-7-7-7-7---6---6---7-----|----------3-3-3-3-3---2---2---6-----| 
 |                                    |                                    | 
 |Gtr 2                               |                                    | 
 |  W                                 |  W                                 | 
a|------------------------------------|------------------------------------| 
E|--12tp------------------------------|--12tp------------------------------| 
C|------------------------------------|------------------------------------| 
G|------------------------------------|------------------------------------| 
D|------------------------------------|------------------------------------| 
A|------------------------------------|------------------------------------| 

   (Q)      S S S S E   E   E   E        E   E   E   E   E   E   E   E 
a|------------------------------------|------------------------------------| 
E|------------------------------------|------------------------------------| 
C|------------------------------------|----------9---8-------8---9---11----| 
G|----------9-9-9-9-9---8---8---9-----|------9-----------10----------------| 
D|----------x-x-x-x-x---x---x---x-----|--7---------------------------------| 
A|----------7-7-7-7-7---6---6---7-----|------------------------------------| 
 |                                    |                                    | 
 |  W                                 |  E   E   E   E   E   E   E   E     | 
a|------------------------------------|------------------------------------| 
E|--12tp------------------------------|------------------------------------| 
C|------------------------------------|----------9---8-------8---9---11----| 
G|------------------------------------|------9-----------10----------------| 
D|------------------------------------|--7---------------------------------| 
A|------------------------------------|------------------------------------| 

  Gtr 1, 2 
    E   E   E   E   E   E   E   E        E   E   E   E   E   E   E   E 
a|------------------------------------|------------------------------------| 
E|o-----------------------------------|------------------------------------| 
C|------------------------------------|------------------------------------| 
G|------9-------9---10--10--10-/13----|------9-------9---10--10--10-\9-----| 
D|o-7-------7-------x---x---x---x-----|--7-------7-------x---x---x---x-----| 
A|--0-------0-------8---8---8--/11----|--0-------0-------8---8---8--\7-----| 

    E   E   E   E   E   E   E   E        E   E   E   E   E   E   E   E     (x2) 
a|------------------------------------|------------------------------------| 
E|------------------------------------|-----------------------------------o| 
C|------------------------------------|--------------8-------8---9---11----| 
G|------9-------9---10--10--10-/13----|------9-----------10----------------| 
D|--7-------7-------x---x---x---x-----|--7-------7------------------------o| 
A|--0-------0-------8---8---8--/11----|--0-------0-------------------------| 

  Gtr 1 
    E   E   E   E   E   E   E   E 
a|------------------------------------| 
E|------------------------------------| 
C|------------------------------------| 
G|-------------9---7---10--9--/12-----| 
D|-----7---10-------------------------| 
A|--0---------------------------------| 
 |                                    | 
 |Gtr 2                               | 
 |  E   E   E   E   E   E   E   E     | 
a|------------------------------------| 
E|------------------------------------| 
C|--------------16--14--17--16-/19----| 
G|------14-/17------------------------| 
D|------------------------------------| 
A|--0---------------------------------| 


Chorus 1 
  Gtr 1 
    E   E   E   E   E   E   E   E        E   E   E   E   E   E   E   E 
a|------------------------------------|------------------------------------| 
E|------------------------------------|------------------------------------| 
C|--------------9---7---9-------------|--------------9---7---9-------------| 
G|------7---10--------------10--9-----|------7---10--------------10--9-----| 
D|--0---------------------------------|--0---------------------------------| 
A|------------------------------------|------------------------------------| 
 |                                    |                                    | 
 |Gtr 2                               |                                    | 
 |  E   E   E   E   E   E   E   E     |  E   E   E   E   E   E   E   E     | 
a|------------------------------------|------------------------------------| 
E|------------------------------------|------------------------------------| 
C|--------------9---7---9-------------|--------------9---7---9-------------| 
G|------7---10--------------10--9-----|------7---10--------------10--9-----| 
D|--0---------------------------------|--0---------------------------------| 
A|------------------------------------|------------------------------------| 

    E   E   E   E   E   E   E   E        E   E   E   E   E   E   E   E 
a|------------------------------------|------------------------------------| 
E|------------------------------------|------------------------------------| 
C|------------------------------------|------------------------------------| 
G|--------------9---7---9-------------|--------------9---7---10--9--/12----| 
D|------7---10--------------9---5-----|------7---10------------------------| 
A|--0---------------------------------|--0---------------------------------| 
 |                                    |                                    | 
 |  E   E   E   E   E   E   E   E     |  E   E   E   E   E   E   E   E     | 
a|------------------------------------|------------------------------------| 
E|------------------------------------|------------------------------------| 
C|--------------16--14--16------------|--------------16--14--17--16-/19----| 
G|------14-/17--------------16--12----|------14-/17------------------------| 
D|------------------------------------|------------------------------------| 
A|--0---------------------------------|--0---------------------------------| 

    E   E   E   E   E   E   E   E        E   E   E   E   H 
a|------------------------------------|------------------------------------| 
E|o-----------------------------------|------------------------------------| 
C|--------------9---7---9-------------|--------------9---10----------------| 
G|------7---10--------------10--9-----|------7---10------------------------| 
D|o-0---------------------------------|--0---------------------------------| 
A|------------------------------------|------------------------------------| 
 |                                    |                                    | 
 |  E   E   E   E   E   E   E   E     |  E   E   E   E   H                 | 
a|------------------------------------|------------------------------------| 
E|o-----------------------------------|------------------------------------| 
C|--------------9---7---9-------------|------------------7-----------------| 
G|------7---10--------------10--9-----|------7---10--9---------------------| 
D|o-0---------------------------------|--0---------------------------------| 
A|------------------------------------|------------------------------------| 

    E   E   E   E   E   E   E   E        E   E   E   E   E   E   E   E     (x2) 
a|------------------------------------|------------------------------------| 
E|------------------------------------|-----------------------------------o| 
C|------------------------------------|------------------------------------| 
G|--------------9---7---9-------------|--------------9---7---10--9--/12----| 
D|------7---10--------------9---5-----|------7---10-----------------------o| 
A|--0---------------------------------|--0---------------------------------| 
 |                                    |                                    | 
 |  E   E   E   E   E   E   E   E     |  E   E   E   E   E   E   E   E     | 
a|------------------------------------|------------------------------------| 
E|------------------------------------|-----------------------------------o| 
C|--------------16--14--16------------|--------------16--14--17--16-/19----| 
G|------14-/17--------------16--12----|------14-/17------------------------| 
D|------------------------------------|-----------------------------------o| 
A|--0---------------------------------|--0---------------------------------| 


Post-Chorus 
  Gtr 1 
    W                                    W 
a|------------------------------------|------------------------------------| 
E|o-----------------------------------|------------------------------------| 
C|--2---------------------------------|--2---------------------------------| 
G|--2---------------------------------|--2---------------------------------| 
D|o-0---------------------------------|--0---------------------------------| 
A|------------------------------------|------------------------------------| 
 |                                    |                                    | 
 |Gtr 2                               |                                    | 
 |  E   E   E   E   E   E   E   E     |  E   E   E   E   E   E   E   E     | 
a|------------------------------------|------------------------------------| 
E|o-----------------------------------|------------------------------------| 
C|--------------9---7---9-------------|--------------9---7---9-------------| 
G|------7---10--------------10--9-----|------7---10--------------10--9-----| 
D|o-0---------------------------------|--0---------------------------------| 
A|------------------------------------|------------------------------------| 

    W                                    W                                 (x2) 
a|------------------------------------|------------------------------------| 
E|------------------------------------|-----------------------------------o| 
C|------------------------------------|--9---------------------------------| 
G|------------------------------------|--9---------------------------------| 
D|--7---------------------------------|--7--------------------------------o| 
A|--0---------------------------------|------------------------------------| 
 |                                    |                                    | 
 |  E   E   E   E   E   E   E   E     |  E   E   E   E   E   E   E   E     | 
a|------------------------------------|------------------------------------| 
E|------------------------------------|-----------------------------------o| 
C|--------------16--14--16------------|--------------16--14--17--16-/19----| 
G|------14-/17--------------16--12----|------14-/17------------------------| 
D|------------------------------------|-----------------------------------o| 
A|--0---------------------------------|--0---------------------------------| 

   (E)  Q.          H                   (E)  Q.         (E)  Q. 
a|------------------------------------|------------------------------------| 
E|------------------------------------|------------------------------------| 
C|------------------------------------|------------------------------------| 
G|------3-----------2-----------------|------3---------------3-------------| 
D|------x-----------x-----------------|------x---------------x-------------| 
A|------1-----------0-----------------|------1---------------1-------------| 
 |                                    |                                    | 
 | (E)  Q.          H                 | (E)  Q.         (E)  Q.            | 
a|------------------------------------|------------------------------------| 
E|------------------------------------|------------------------------------| 
C|------------------------------------|------------------------------------| 
G|------3-----------2-----------------|------3---------------3-------------| 
D|------x-----------x-----------------|------x---------------x-------------| 
A|------1-----------0-----------------|------1---------------1-------------| 


Interlude 1 
  Gtr 1 
    W                                    H.                      Q 
a|------------------------------------|------------------------------------| 
E|------------------------------------|------------------------------------| 
C|------------------------------------|------------------------------------| 
G|--9---------------------------------|--13----------------------10--------| 
D|--x---------------------------------|--x-----------------------x---------| 
A|--7---------------------------------|--11----------------------8---------| 
 |                                    |                                    | 
 |Gtr 2                               |                                    | 
 |  W                                 |  H.                      Q         | 
a|------------------------------------|------------------------------------| 
E|------------------------------------|------------------------------------| 
C|--16--------------------------------|--20----------------------17--------| 
G|--x---------------------------------|--x-----------------------x---------| 
D|--14--------------------------------|--18----------------------15--------| 
A|------------------------------------|------------------------------------| 

    Q       H               Q            Q       H. 
a|------------------------------------|------------------------------------| 
E|------------------------------------|------------------------------------| 
C|--------------------------13--------|--12--------------------------------| 
G|--9-----------------------x---------|--x---------------------------------| 
D|--x-------7---------------11--------|--10------7-------------------------| 
A|--7-------0-------------------------|----------0-------------------------| 
 |                                    |                                    | 
 |  Q       H               Q         |  Q       H.                        | 
a|------------------------------------|------------------------------------| 
E|------------------------------------|------------------------------------| 
C|--16------9---------------17--------|--16------9-------------------------| 
G|--x-------x---------------x---------|--x-------x-------------------------| 
D|--14------7---------------15--------|--14------7-------------------------| 
A|------------------------------------|------------------------------------| 

    W                                    H.                      Q 
a|------------------------------------|------------------------------------| 
E|------------------------------------|------------------------------------| 
C|--12--------------------------------|--20----------------------17--------| 
G|--x---------------------------------|--x-----------------------x---------| 
D|--10--------------------------------|--18----------------------15--------| 
A|------------------------------------|------------------------------------| 
 |                                    |                                    | 
 |  W                                 |  H.                      Q         | 
a|------------------------------------|------------------------------------| 
E|------------------------------------|------------------------------------| 
C|--16--------------------------------|--20----------------------17--------| 
G|--x---------------------------------|--x-----------------------x---------| 
D|--14--------------------------------|--18----------------------15--------| 
A|------------------------------------|------------------------------------| 

    Q       H               Q            Q       H. 
a|------------------------------------|------------------------------------| 
E|------------------------------------|------------------------------------| 
C|--16----------------------17--------|--16--------------------------------| 
G|--x-----------------------x---------|--x---------------------------------| 
D|--14------7---------------15--------|--14------7-------------------------| 
A|----------0-------------------------|----------0-------------------------| 
 |                                    |                                    | 
 |  Q       H               Q         |  Q       H.                        | 
a|------------------------------------|------------------------------------| 
E|------------------------------------|------------------------------------| 
C|--16------9---------------17--------|--16------9-------------------------| 
G|--x-------x---------------x---------|--x-------x-------------------------| 
D|--14------7---------------15--------|--14------7-------------------------| 
A|------------------------------------|------------------------------------| 

    W                                    H.                      Q 
a|------------------------------------|------------------------------------| 
E|------------------------------------|------------------------------------| 
C|--12--------------------------------|--16--------------------------------| 
G|--x---------------------------------|--x-----------------------10--------| 
D|--10--------------------------------|--14----------------------x---------| 
A|------------------------------------|--------------------------8---------| 
 |                                    |                                    | 
 |  W                                 |  H.                      Q         | 
a|------------------------------------|------------------------------------| 
E|------------------------------------|------------------------------------| 
C|--16--------------------------------|--20----------------------17--------| 
G|--x---------------------------------|--x-----------------------x---------| 
D|--14--------------------------------|--18----------------------15--------| 
A|------------------------------------|------------------------------------| 


verse 2 
  Gtr 1, 2 
    E   E   E   E   E   E   E   E        E   E   E   E   E   E   E   E 
a|------------------------------------|------------------------------------| 
E|o-----------------------------------|------------------------------------| 
C|------------------------------------|------------------------------------| 
G|------9-------9---10--10--10-/13----|------9-------9---10--10--10-\9-----| 
D|o-7-------7-------x---x---x---x-----|--7-------7-------x---x---x---x-----| 
A|--0-------0-------8---8---8--/11----|--0-------0-------8---8---8--\7-----| 

    E   E   E   E   E   E   E   E        E   E   E   E   E   E   E   E     (x2) 
a|------------------------------------|------------------------------------| 
E|------------------------------------|-----------------------------------o| 
C|------------------------------------|--------------8-------8---9---11----| 
G|------9-------9---10--10--10-/13----|------9-----------10----------------| 
D|--7-------7-------x---x---x---x-----|--7-------7------------------------o| 
A|--0-------0-------8---8---8--/11----|--0-------0-------------------------| 


Chorus 2 
  Gtr 1 
    E   E   E   E   E   E   E   E        E   E   E   E   E   E   E   E 
a|------------------------------------|------------------------------------| 
E|------------------------------------|------------------------------------| 
C|--------------9---7---9-------------|--------------9---7---9-------------| 
G|------7---10--------------10--9-----|------7---10--------------10--9-----| 
D|--0---------------------------------|--0---------------------------------| 
A|------------------------------------|------------------------------------| 
 |                                    |                                    | 
 |Gtr 2                               |                                    | 
 |  E   E   E   E   E   E   E   E     |  E   E   E   E   E   E   E   E     | 
a|------------------------------------|------------------------------------| 
E|------------------------------------|------------------------------------| 
C|--------------9---7---9-------------|--------------9---7---9-------------| 
G|------7---10--------------10--9-----|------7---10--------------10--9-----| 
D|--0---------------------------------|--0---------------------------------| 
A|------------------------------------|------------------------------------| 

    E   E   E   E   E   E   E   E        E   E   E   E   E   E   E   E 
a|------------------------------------|------------------------------------| 
E|------------------------------------|------------------------------------| 
C|------------------------------------|------------------------------------| 
G|--------------9---7---9-------------|--------------9---7---10--9--/12----| 
D|------7---10--------------9---5-----|------7---10------------------------| 
A|--0---------------------------------|--0---------------------------------| 
 |                                    |                                    | 
 |  E   E   E   E   E   E   E   E     |  E   E   E   E   E   E   E   E     | 
a|------------------------------------|------------------------------------| 
E|------------------------------------|------------------------------------| 
C|--------------16--14--16------------|--------------16--14--17--16-/19----| 
G|------14-/17--------------16--12----|------14-/17------------------------| 
D|------------------------------------|------------------------------------| 
A|--0---------------------------------|--0---------------------------------| 

    E   E   E   E   E   E   E   E        E   E   E   E   H 
a|------------------------------------|------------------------------------| 
E|------------------------------------|------------------------------------| 
C|--------------9---7---9-------------|--------------9---10----------------| 
G|------7---10--------------10--9-----|------7---10------------------------| 
D|--0---------------------------------|--0---------------------------------| 
A|------------------------------------|------------------------------------| 
 |                                    |                                    | 
 |  E   E   E   E   E   E   E   E     |  E   E   E   E   H                 | 
a|------------------------------------|------------------------------------| 
E|------------------------------------|------------------------------------| 
C|--------------9---7---9-------------|------------------7-----------------| 
G|------7---10--------------10--9-----|------7---10--9---------------------| 
D|--0---------------------------------|--0---------------------------------| 
A|------------------------------------|------------------------------------| 

    E   E   E   E   E   E   E   E        E   E   E   E   E   E   E   E 
a|------------------------------------|------------------------------------| 
E|------------------------------------|------------------------------------| 
C|------------------------------------|------------------------------------| 
G|--------------9---7---9-------------|--------------9---7---10--9--/12----| 
D|------7---10--------------9---5-----|------7---10------------------------| 
A|--0---------------------------------|--0---------------------------------| 
 |                                    |                                    | 
 |  E   E   E   E   E   E   E   E     |  E   E   E   E   E   E   E   E     | 
a|------------------------------------|------------------------------------| 
E|------------------------------------|------------------------------------| 
C|--------------16--14--16------------|--------------16--14--17--16-/19----| 
G|------14-/17--------------16--12----|------14-/17------------------------| 
D|------------------------------------|------------------------------------| 
A|--0---------------------------------|--0---------------------------------| 

    E   E   E   E   E   E   E   E        E   E   E   E   H 
a|------------------------------------|------------------------------------| 
E|------------------------------------|------------------------------------| 
C|--------------9---7---9-------------|--------------9---10----------------| 
G|------7---10--------------10--9-----|------7---10------------------------| 
D|--0---------------------------------|--0---------------------------------| 
A|------------------------------------|------------------------------------| 
 |                                    |                                    | 
 |  E   E   E   E   E   E   E   E     |  E   E   E   E   H                 | 
a|------------------------------------|------------------------------------| 
E|------------------------------------|------------------------------------| 
C|--------------9---7---9-------------|------------------7-----------------| 
G|------7---10--------------10--9-----|------7---10--9---------------------| 
D|--0---------------------------------|--0---------------------------------| 
A|------------------------------------|------------------------------------| 

    E   E   E   E   E   E   E   E        Q       Q       Q       Q 
a|------------------------------------|------------------------------------| 
E|------------------------------------|------------------------------------| 
C|------------------------------------|----------9-------12------16--------| 
G|--------------9---7---9-------------|----------x-------x-------x---------| 
D|------7---10--------------9---5-----|----------7-------10------14--------| 
A|--0---------------------------------|--0---------------------------------| 
 |                                    |                                    | 
 |  E   E   E   E   E   E   E   E     |  Q       Q       Q       Q         | 
a|------------------------------------|------------------------------------| 
E|------------------------------------|------------------------------------| 
C|--------------16--14--16------------|--9-------9------12-------16--------| 
G|------14-/17--------------16--12----|--x-------x------x--------x---------| 
D|------------------------------------|--7-------7------10-------14--------| 
A|--0---------------------------------|------------------------------------| 

    Q       Q       Q       Q 
a|------------------------------------| 
E|------------------------------------| 
C|--14------17------16------19--------| 
G|--x-------x-------x-------x---------| 
D|--12------15------14------17--------| 
A|------------------------------------| 
 |                                    | 
 |  Q       Q       Q       Q         | 
a|------------------------------------| 
E|------------------------------------| 
C|--14------17------16------19--------| 
G|--x-------x-------x-------x---------| 
D|--12------15------14------17--------| 
A|------------------------------------| 


Interlude 2 
  Gtr 1 
    W                                    H.                      Q 
a|------------------------------------|------------------------------------| 
E|------------------------------------|------------------------------------| 
C|--16--------------------------------|--10--------------------------------| 
G|--x---------------------------------|--x---------------------------------| 
D|--14--------------------------------|--8---------------------------------| 
A|------------------------------------|--------------------------12\-------| 
 |                                    |                                    | 
 |Gtr 2                               |                                    | 
 |  W                                 |  H.                      Q         | 
a|------------------------------------|------------------------------------| 
E|------------------------------------|------------------------------------| 
C|--21--------------------------------|--10--------------------------------| 
G|--x---------------------------------|--x---------------------------------| 
D|--19--------------------------------|--8---------------------------------| 
A|------------------------------------|--------------------------12\-------| 

  Gtr 1, 2 
    E   E   E   E   E   E   E   E        E   E   E   E   E   E   E   E 
a|------------------------------------|------------------------------------| 
E|o-----------------------------------|------------------------------------| 
C|------------------------------8-----|--8-------9---9-------12--12--13----| 
G|------------------------------x-----|--x-------x---x-------x---x---x-----| 
D|o-7---7---7---7---7---7---7---6-----|--6---7---7---7---7---10--10--11----| 
A|--0---0---0---0---0---0---0---------|------0-----------0-----------------| 

    E   E   E   E   E   E   E   E        E   E   E   E   E   E   E   E 
a|------------------------------------|------------------------------------| 
E|------------------------------------|------------------------------------| 
C|------------------------------8-----|--8-------9---9---------------------| 
G|------------------------------x-----|--x-------x---x-------4---3---3-----| 
D|--7---7---7---7---7---7---7---6-----|--6---7---7---7---7---x---x---x-----| 
A|--0---0---0---0---0---0---0---------|------0-----------0---2---1---1-----| 

    E   E   E   E   E   E   E   E        E   E   E   E   E   E   E   E 
a|------------------------------------|------------------------------------| 
E|------------------------------------|------------------------------------| 
C|------------------------------8-----|--8-------9---9-------12--12--13----| 
G|------------------------------x-----|--x-------x---x-------x---x---x-----| 
D|--7---7---7---7---7---7---7---6-----|--6---7---7---7---7---10--10--11----| 
A|--0---0---0---0---0---0---0---------|------0-----------0-----------------| 

    E   E   E   E   E   E   E   E        E   E   E   E   E   E   E   E     (x2) 
a|------------------------------------|------------------------------------| 
E|------------------------------------|-----------------------------------o| 
C|------------------------------8-----|--8-------9---9-------8---8---8-----| 
G|------------------------------x-----|--x-------x---x-------x---x---x-----| 
D|--7---7---7---7---7---7---7---6-----|--6---7---7---7---7---6---6---6----o| 
A|--0---0---0---0---0---0---0---------|------0-----------0-----------------| 

  Gtr 1 
    W                                   +W 
a|------------------------------------|------------------------------------| 
E|------------------------------------|------------------------------------| 
C|--2---------------------------------|------------------------------------| 
G|--2---------------------------------|------------------------------------| 
D|--0---------------------------------|------------------------------------| 
A|------------------------------------|------------------------------------| 
 |                                    |                                    | 
 |Gtr 2                               |                                    | 
 |  W                                 | +W                                 | 
a|------------------------------------|------------------------------------| 
E|------------------------------------|------------------------------------| 
C|--2---------------------------------|------------------------------------| 
G|--2---------------------------------|------------------------------------| 
D|--0---------------------------------|------------------------------------| 
A|------------------------------------|------------------------------------| 

    W                                    W 
a|------------------------------------|------------------------------------| 
E|------------------------------------|------------------------------------| 
C|------------------------------------|--9---------------------------------| 
G|------------------------------------|--9---------------------------------| 
D|--7---------------------------------|--7---------------------------------| 
A|--0---------------------------------|------------------------------------| 
 |                                    |                                    | 
 |  E   E   E   E   E   E   E   E     |  E   E   E   E   E   E   E   E     | 
a|------------------------------------|------------------------------------| 
E|------------------------------------|------------------------------------| 
C|--------------16--14--16------------|--------------16--14--17--16-/19----| 
G|------14-/17--------------16--12----|------14-/17------------------------| 
D|------------------------------------|------------------------------------| 
A|--0---------------------------------|--0---------------------------------| 

   W                                    W 
a|------------------------------------|------------------------------------| 
E|------------------------------------|------------------------------------| 
C|--2---------------------------------|--2---------------------------------| 
G|--2---------------------------------|--2---------------------------------| 
D|--0---------------------------------|--0---------------------------------| 
A|------------------------------------|------------------------------------| 
 |                                    |                                    | 
 |  E   E   E   E   E   E   E   E     |  E   E   E   E   E   E   E   E     | 
a|------------------------------------|------------------------------------| 
E|------------------------------------|------------------------------------| 
C|--------------9---7---9-------------|--------------9---7---9-------------| 
G|------7---10--------------10--9-----|------7---10--------------10--9-----| 
D|--0---------------------------------|--0---------------------------------| 
A|------------------------------------|------------------------------------| 

    W 
a|------------------------------------| 
E|------------------------------------| 
C|------------------------------------| 
G|------------------------------------| 
D|--7---------------------------------| 
A|--0---------------------------------| 
 |                                    | 
 |  E   E   E   E   E   E   E   E     | 
a|------------------------------------| 
E|------------------------------------| 
C|--------------16--14--16------------| 
G|------14-/17--------------16--12----| 
D|------------------------------------| 
A|--0---------------------------------| 


Chorus 3 
  Gtr 1 
    E   E   E   E   E   E   E   E        E   E   E   E   H 
a|------------------------------------|------------------------------------| 
E|o-----------------------------------|------------------------------------| 
C|--------------9---7---9-------------|--------------9---10----------------| 
G|------7---10--------------10--9-----|------7---10------------------------| 
D|o-0---------------------------------|--0---------------------------------| 
A|------------------------------------|------------------------------------| 
 |                                    |                                    | 
 |Gtr 2                               |                                    | 
 |  E   E   E   E   E   E   E   E     |  E   E   E   E   H                 | 
a|------------------------------------|------------------------------------| 
E|o-----------------------------------|------------------------------------| 
C|--------------9---7---9-------------|------------------7-----------------| 
G|------7---10--------------10--9-----|------7---10--9---------------------| 
D|o-0---------------------------------|--0---------------------------------| 
A|------------------------------------|------------------------------------| 

    E   E   E   E   E   E   E   E        E   E   E   E   E   E   E   E     (x2) 
a|------------------------------------|------------------------------------| 
E|------------------------------------|-----------------------------------o| 
C|------------------------------------|------------------------------------| 
G|--------------9---7---9-------------|--------------9---7---10--9--/12----| 
D|------7---10--------------9---5-----|------7---10-----------------------o| 
A|--0---------------------------------|--0---------------------------------| 
 |                                    |                                    | 
 |  E   E   E   E   E   E   E   E     |  E   E   E   E   E   E   E   E     | 
a|------------------------------------|------------------------------------| 
E|------------------------------------|-----------------------------------o| 
C|--------------16--14--16------------|--------------16--14--17--16-/19----| 
G|------14-/17--------------16--12----|------14-/17------------------------| 
D|------------------------------------|-----------------------------------o| 
A|--0---------------------------------|--0---------------------------------| 


Outro 
  Gtr 1, 2 
   (E)  Q.          H                   (E)  Q.         (E)  E   E   E 
a|------------------------------------|------------------------------------| 
E|------------------------------------|------------------------------------| 
C|------------------------------------|----------------------17--16--15----| 
G|------3-----------2-----------------|------3---------------x---x---x-----| 
D|------x-----------x-----------------|------x---------------15--14--13----| 
A|------1-----------0-----------------|------1-----------------------------| 

    Q       E   E   Q       Q            Q       E   E   E   E   E   E 
a|------------------------------------|------------------------------------| 
E|o-----------------------------------|------------------------------------| 
C|----------12--13----------16--------|----------12--13------17--16--15----| 
G|----------x---x-----------x---------|----------x---x-------x---x---x-----| 
D|o---------10--11----------14--------|----------10--11------15--14--13----| 
A|--0---------------0-----------------|--0---------------0-----------------| 

    Q       E   E   Q       Q           (Q)      Q      (E)  S  S  E    E     (x2) 
a|------------------------------------|---------------------------------------| 
E|------------------------------------|--------------------------------------o| 
C|----------12--13----------16--------|----------15----------14-14-14---13----| 
G|----------x---x-----------x---------|----------x-----------x--x--x----x-----| 
D|----------10--11----------14--------|----------13----------12-12-12---11---o| 
A|--0---------------0-----------------|---------------------------------------| 

  Gtr 1 
    Q       E   E   Q       Q            Q       E   E   E   E   E   E 
a|------------------------------------|------------------------------------| 
E|------------------------------------|------------------------------------| 
C|------------------------------------|----------------------17--16--15----| 
G|----------5---6-----------9---------|----------5---6-------x---x---x-----| 
D|----------x---x-----------x---------|----------x---x-------15--14--13----| 
A|--0-------3---4---0-------7---------|--0-------3---4---0-----------------| 
 |                                    |                                    | 
 |Gtr 2                               |                                    | 
 |  Q       E   E   Q       Q         |  Q       E   E   E   E   E   E     | 
a|------------------------------------|------------------------------------| 
E|------------------------------------|------------------------------------| 
C|----------12--13----------16--------|----------12--13------17--16--15----| 
G|----------x---x-----------x---------|----------x---x-------x---x---x-----| 
D|----------10--11----------14--------|----------10--11------15--14--13----| 
A|--0---------------0-----------------|--0---------------0-----------------| 


************************************ 

|  \   Slide down 
|  x   Dead note 
|  /   Slide up 
|  tp  Tremolo picking 
|  S   Sixteenth note 
|  E   Eighth note 
|  Q   Quarter note 
|  H   Half note 
|  W   Whole note 
|  .   Dotted note 
| (N)  Rest 
|  +   Add note value 
|o o|  Reprise 

************************************ 
  

cifra enviadasem correções
enviado porenviada por:alyslima
top 5 | satyricon
top heavy metal
Outras músicas do artista letras do(a) Satyricon
4.
Natt
Top cifras »Top artistas »
Petaxxon Comunicação Online
Cifras.com.br - Melhor e mais completo site de cifras e tablaturas do Brasil
Mais de 1 milhão de acordes de músicas cadastradas desde 2003
As informações contidas no nosso site são colaborações de seus usuários e podem conter erros, sendo assim, não nos responsabilizamos sobre nenhuma destas.
close
menos
mais
close
Cor dos acordes:

Cor da letra:

 

save
close
close
 
redimensionar