Cifras e Tablaturas
Scandal

Scandal

Bitter Chocolate

Cifras Cancelar Versão de Impressão

Scandal - Bitter Chocolate

Tom: E

  			CHORDS USED 
   E   Eaug  E6 F#m  G# G#m  A  B Bm  C C#m  D 
E|-0----0----0---2---4---4---5--2--2--3--4---5| 
B|-0----1----2---2---4---4---5--4--3--5--5---7| 
G|-1----1----1---2---5---4---6--4--4--5--6---7| 
D|-2----2----2---4---6---6---7--4--4--5--6---7| 
A|-2----x----2---4---6---6---7--2--2--3--4---5| 
E|-0----x----0---2---4---4---5--x--x--x--x---x| 

Haru uses 
  E5   Eaug  E6 
E|-x----x----x---| 
B|-x----x----x---| 
G|-x----x----x---| 
D|-9---10---11---| 
A|-7----7----7---| 
E|-x----x----x---| 

Intro 
E Eaug E6 Eaug 2x 

Mami plays 
E|------------------| 
B|--9---9----9---7--| 
G|----9---9----9---9| 
D|------------------| 
A|------------------| 
E|------------------| (3x) 

E|---------------| 
B|--9---9----9---| 
G|----9---9----9-| 
D|---------------| 
A|---------------| 
E|---------------| 

Riff 
E|-12-14-16-12-14-| 
B|----------------| 
G|----------------| 
D|----------------| 
A|----------------| 
E|----------------| (3x) 

E|-12-14-16-12-| 
B|-------------| 
G|-------------| 
D|-------------| 
A|-------------| 
E|-------------| 

verse 1 
E           Eaug          C#m     A 
Haa..tto nagai iki wo nomikonde 

Mami plays 
E|---------|-x--x---| 
B|--9/7-/9-|-x--x---| 
G|---------|-x--x---| 
D|---------|-5--7---| 
A|---------|-3--5---| 
E|---------|-x--x---| 

C#m            B       A       C     D 
Itsumo to kawaranai yasashii egao ni tsukiau 
E           Eaug          C#m       A 
Mou zutto soba ni iru no ni kyou mo 
C#m             B       A       C    D   E 
Atashi no shita machigai ni kimi wa kizukanai 

Mami plays 
E|---------------| 
B|---------------| 
G|-/9------------| 
D|----9-7-6-4-2--| 
A|---------------| 
E|---------------| 

Pre-Chorus 
D         A 
Yukkuri toketeku 

Mami plays 
E|----------| 
B|----------| 
G|-(6)h6----| 
D|-------7--| 
A|----------| 
E|----------| 

 C#m    A 
Bitaa chokoreeto 

Mami plays 
E|-------4------9---| 
B|-------5--10--10--| 
G|-------6--9-------| 
D|----6--6----------| 
A|-/4----4----------| 
E|-------x---------- 

A               B       C   C#m  E 
Amai kaori ni yobare oboreta 

Mami plays 
E|------------------7-/12--0| 
B|-----5------7--9---------0| 
G|---6------8--------------1| 
D|-7------9----------------2| 
A|-------------------------2| 
E|-------------------------0| 

Chorus 
A    B      E    G#      A       G#         C#m 
Kaze ga fukeba kimi no kami ni kusuguraresou na kyori de 

Mami plays 
E|-/9-----11-------x--x--x--x---------------12|5---7---9-----------------------------| 
B|----10-----12---12--11-10-9--/5-----10-9--12|5---7---9-----------------------------| 
G|-----------------x--x--x--x----6--8---------|6---8---9---------------9--9-9-9-9-8-4| 
D|-----------------9--8--7--6-----------------|7---9--11----------9-11---------------| 
A|-----------------x--x--x--x-----------------|x---x---x--9-11-12--------------------| 
E|-----------------x--x--x--x-----------------|x---x---x-----------------------------| (2x) 

A      B     G#m       C#m 
Chotto zutsu zureteiku hohaba 
F#m    C          D 
Minai furi shita zutto 
A    B  E  G#         A       G#         C#m 
Kangaete akubi shite dondon ashita ni kawatte 
A    B      G#m      C#m       F#m     C      B 
Okkotoshita haato no kakera wa moto ni modoranaiwa 

Mami plays 
E|-x-----|-x---x--x----x-----|-x--x-x---x-x-x----|--x--x-x-x-| 
B|-12----|-10--9-10----12----|-10-9-10--9-7-5----|--10-9-7-5-| 
G|-x-----|-x---x--x----x-----|-x--x-x---x-x-x----|--x--x-x-x-| 
D|-9-----|-7---6--7----9-----|-7--6-7---6-4-2----|--7--6-4-2-| 
A|-x-----|-x---x--x----x-----|-x--x-x---x-x-x----|--x--x-x-x-| 
E|-x-----|-x---x--x----x-----|-x--x-x---x-x-x----|--x--x-x-x-| 

verse 2 
E     Eaug    C#m         A 
Nee..aitai to omoukoto ga 
   C#m      B          A       C      D 
Ai toka koi toka sore ni kankei shiteru nara 
E           Eaug          C#m       A 
Yappa gomen kyou de wakaremashou 
   C#m           B       A       C    D   E 
Tomodachi de iraretara ureshii...nante ne 

Mami plays 
E|---------------| 
B|---------------| 
G|-/9------------| 
D|----9-7-6-4-2--| 
A|---------------| 
E|---------------| 

Pre-Chorus 
D           A 
Hitorikiri da to 

Mami plays 
E|----------| 
B|----------| 
G|-(6)h6----| 
D|-------7--| 
A|----------| 
E|----------| 

 C#m          A 
sukoshi hirosugiru 

Mami plays 
E|-------4------9---| 
B|-------5--10--10--| 
G|-------6--9-------| 
D|----6--6----------| 
A|-/4----4----------| 
E|-------x----------| 

A               B           C       C#m    E 
Tsumetai beddo de dareka no yume wo miru 

Mami plays 
E|------------------7-/12--0| 
B|-----5------7--9---------0| 
G|---6------8--------------1| 
D|-7------9----------------2| 
A|-------------------------2| 
E|-------------------------0| 

Chorus 
A   B      E    G#        A     G#         C#m 
Takai kata ni awasete tsumasakidachi de kisu wo shita 

Mami plays 
E|-/9-----11-------x--x--x--x---------------12|5---7---9-----------------------------| 
B|----10-----12---12--11-10-9--/5-----10-9--12|5---7---9-----------------------------| 
G|-----------------x--x--x--x----6--8---------|6---8---9---------------9--9-9-9-9-8-4| 
D|-----------------9--8--7--6-----------------|7---9--11----------9-11---------------| 
A|-----------------x--x--x--x-----------------|x---x---x--9-11-12--------------------| 
E|-----------------x--x--x--x-----------------|x---x---x-----------------------------| (2x) 

A         B      G#m       C#m 
Hajimete kanjita yawarakai taion ni 
F#m**  C          D 
Minai furi shita zutto 
A    B   E   G#         A       G#         C#m 
"Aishiteru?" nankai mo kiita no wa "fuan" ja nakute 
A    B  G#m      C#m       F#m**   C      B 
Kikoeru aijou ga itsumo hoshikatta dake na no yo 

Instrumental 

Mami plays 
E|-/9-----11-------x--x--x--x---------------12|5---7---9-----------------------------| 
B|----10-----12---12--11-10-9--/5-----10-9--12|5---7---9-----------------------------| 
G|-----------------x--x--x--x----6--8---------|6---8---9---------------9--9-9-9-9-8-4| 
D|-----------------9--8--7--6-----------------|7---9--11----------9-11---------------| 
A|-----------------x--x--x--x-----------------|x---x---x--9-11-12--------------------| 
E|-----------------x--x--x--x-----------------|x---x---x-----------------------------| (2x) 

A   B   E   G#  A    G# C#m 
A   B   G#m C#m F#m  C  D 
A   B   E   G#  A    G# C#m 
A   B  G#m  C#m F#m  C   B 

Bridge 
D           A 
Baibai, arigatou 

Mami plays 
E|----------| 
B|----------| 
G|-(6)h6----| 
D|-------7--| 
A|----------| 
E|----------| 

 C#m          A 
Tsutaekitte itoshiku naru 

Mami plays 
E|-------4------9---| 
B|-------5--10--10--| 
G|-------6--9-------| 
D|----6--6----------| 
A|-/4----4----------| 
E|-------x---------- 

    A            B         C   C#m    E 
Baibai, ima made arigatou da-ringru 

Mami plays 
E|------------------7-/12--0| 
B|-----5------7--9---------0| 
G|---6------8--------------1| 
D|-7------9----------------2| 
A|-------------------------2| 
E|-------------------------0| 

Chorus 
A    B      E    G#        A        G#         C#m 
Kimi ga naita nande darou tsurarete atashi mo naiteta 

A      B      G#m     C#m      F#m       C    B 
I love you hetakuso ni natte kizutsuketa yoru datte 

A   B      E    G#        A        G#         C#m 
Yasashisa wo koboshite dakishimete kureta kimi ni ima 

Mami plays 
E|-/9-----11-------x--x--x--x---------------12|5---7---9-----------------------------| 
B|----10-----12---12--11-10-9--/5-----10-9--12|5---7---9-----------------------------| 
G|-----------------x--x--x--x----6--8---------|6---8---9---------------9--9-9-9-9-8-4| 
D|-----------------9--8--7--6-----------------|7---9--11----------9-11---------------| 
A|-----------------x--x--x--x-----------------|x---x---x--9-11-12--------------------| 
E|-----------------x--x--x--x-----------------|x---x---x-----------------------------| 

A      B      G#m     C#m 
Mou ichido amaete mitai kedo 
F#m*  C          D 
Moto ni modorenaiwa 

Instrumental 

Mami plays 
E|-/9-----11-------x--x--x--x---------------12|5---7---9-----------------------------| 
B|----10-----12---12--11-10-9--/5-----10-9--12|5---7---9-----------------------------| 
G|-----------------x--x--x--x----6--8---------|6---8---9---------------9--9-9-9-9-8-4| 
D|-----------------9--8--7--6-----------------|7---9--11----------9-11---------------| 
A|-----------------x--x--x--x-----------------|x---x---x--9-11-12--------------------| 
E|-----------------x--x--x--x-----------------|x---x---x-----------------------------| 

A   B   E   G#  A    G# C#m 
A   B   G#m C#m F#m  C  D 

Outro 
E Eaug E6 Eaug 2x 

Mami plays 
E|------------------| 
B|--9---9----9---7--| 
G|----9---9----9---9| 
D|------------------| 
A|------------------| 
E|------------------| (3x) 

E|---------------| 
B|--9---9----9---| 
G|----9---9----9-| 
D|---------------| 
A|---------------| 
E|---------------| 

Riff 
E|-12-14-16-12-14-| 
B|----------------| 
G|----------------| 
D|----------------| 
A|----------------| 
E|----------------| (3x) 

E|-12-14-16-12-| 
B|-------------| 
G|-------------| 
D|-------------| 
A|-------------| 
E|-------------| 

End with E 
    	
fixar
fixar inscrever-se

enviado porenviado por: lucicamargo
cifra enviadaCorrigida por: sem correções
logo top cifrasComente
ico música do artistaMúsicas deste artista
ico curtiuCurtiu?
ico destaqueDestaque
Petaxxon Comunicação Online

Cifras.com.br - Melhor e mais completo site de cifras e tablaturas do Brasil Mais de 1 milhão de acordes de músicas cadastradas desde 2003
As informações contidas no nosso site são colaborações de seus usuários e podem conter erros, sendo assim, não nos responsabilizamos sobre nenhuma destas.

close
menos
mais
close
Cor dos acordes:

Cor da letra:

close
Alinhar acordes a direita Alinhar acordes a esquerda Alinhar acordes em baixo Alinhar acordes no topo
close
  Mostrar todos os acordes Esconder acordes muito fáceis Esconder acordes fáceis Esconder acordes intermediários
redimensionar
glossário