Cifras e Tablaturas
Schandmaul

Schandmaul

Vogelfrei

Cifras Cancelar Versão de Impressão
cifras

Schandmaul - Vogelfrei

fixar na tela  
Exibindo: vídeo-aula ver clipes redimensionar

Tom:

  
Intro 
e|-------|--------|-------|---------| 
B|-------|--------|-------|---------| 
G|-------|--------|-------|---------| 
D|7-7---7|77-7---7|7-7---7|7/8-8\6/7|(x4) 
A|7-7-7--|77-7-7--|7-7-7--|7/8-8\6/7| 
D|7-7----|77-7----|7-7----|7/8-8\6/7| 

Verse 
Nothing is played in the verse 

Chorus 
e|-------|    |-------| 
B|-------|    |-------| 
G|-------|    |-------| 
D|7-7-3-3|(x3)|3-3-3-3| 
A|5-5-1-1|    |3-3-1-1| 
D|-------|    |3-3----| 

e|-------|    |-------| 
B|-------|    |-------| 
G|-------|    |-------| 
D|7-7-3-3|(x3)|5-5-3-3| 
A|5-5-1-1|    |5-5-1-1| 
D|-------|    |5-5----| 

e|-------|    |-------| 
B|-------|    |-------| 
G|-------|    |-------| 
D|7-7-3-3|(x3)|3-3-3-3| 
A|5-5-1-1|    |3-3-1-1| 
D|-------|    |3-3----| 

e|-------|     
B|-------|     
G|-------|     
D|7-7-3-3|(x3) 
A|5-5-1-1|     
D|-------|     

Post-Chorus 
e|-------|--------|-------|---------| 
B|-------|--------|-------|---------| 
G|-------|--------|-------|---------| 
D|7-7---7|77-7---7|7-7---7|7/8-8\6/7|(x4) 
A|7-7-7--|77-7-7--|7-7-7--|7/8-8\6/7| 
D|7-7----|77-7----|7-7----|7/8-8\6/7| 

Chorus 
e|-------|    |-------| 
B|-------|    |-------| 
G|-------|    |-------| 
D|7-7-3-3|(x3)|3-3-3-3| 
A|5-5-1-1|    |3-3-1-1| 
D|-------|    |3-3----| 

e|-------|    |-------| 
B|-------|    |-------| 
G|-------|    |-------| 
D|7-7-3-3|(x3)|5-5-3-3| 
A|5-5-1-1|    |5-5-1-1| 
D|-------|    |5-5----| 

e|-------|    |-------| 
B|-------|    |-------| 
G|-------|    |-------| 
D|7-7-3-3|(x3)|3-3-3-3| 
A|5-5-1-1|    |3-3-1-1| 
D|-------|    |3-3----| 

e|-------|     
B|-------|     
G|-------|     
D|7-7-3-3|(x3) 
A|5-5-1-1|     
D|-------|     

Post-Chorus 
e|-------|--------|-------|---------| 
B|-------|--------|-------|---------| 
G|-------|--------|-------|---------| 
D|7-7---7|77-7---7|7-7---7|7/8-8\6/7|(x4) 
A|7-7-7--|77-7-7--|7-7-7--|7/8-8\6/7| 
D|7-7----|77-7----|7-7----|7/8-8\6/7| 

Chorus 
Repeat till the end 
e|-------|    |-------| 
B|-------|    |-------| 
G|-------|    |-------| 
D|7-7-3-3|(x3)|3-3-3-3| 
A|5-5-1-1|    |3-3-1-1| 
D|-------|    |3-3----| 

e|-------|    |-------| 
B|-------|    |-------| 
G|-------|    |-------| 
D|7-7-3-3|(x3)|5-5-3-3| 
A|5-5-1-1|    |5-5-1-1| 
D|-------|    |5-5----| 

e|-------|    |-------| 
B|-------|    |-------| 
G|-------|    |-------| 
D|7-7-3-3|(x3)|3-3-3-3| 
A|5-5-1-1|    |3-3-1-1| 
D|-------|    |3-3----| 

e|-------|     
B|-------|     
G|-------|     
D|7-7-3-3|(x3) 
A|5-5-1-1|     
D|-------|     

************************************ 

| /   Slide up 
| \   Slide down 

************************************ 
  

top 5 | schandmaul
top rock'n roll
Outras músicas do artista letras do(a) Schandmaul
Top cifras »Top artistas »
Petaxxon Comunicação Online
Cifras.com.br - Melhor e mais completo site de cifras e tablaturas do Brasil
Mais de 1 milhão de acordes de músicas cadastradas desde 2003
As informações contidas no nosso site são colaborações de seus usuários e podem conter erros, sendo assim, não nos responsabilizamos sobre nenhuma destas.
close
menos
mais
close
Cor dos acordes:

Cor da letra:

 

save
close
close
 
redimensionar