Cifras e Tablaturas
Scout Niblett

Scout Niblett

Wolfie

Cifras Cancelar Versão de Impressão
cifras

Scout Niblett - Wolfie

fixar na tela  
Exibindo: vídeo-aula ver clipes redimensionar

Tom:

  
Intro (x2): 

e|--1--1---3--1---------------------------0-----------------------| 
B|--3----3-------3----1--1-----3--1-------1--1---3--1-------------| 
G|--2--------------2--2-----2-------2-----2----2------2----1------| 
D|--------------------2---------------2---3-------------3--2------| 
A|---------------------------------------------------------2------| 
E|----------------------------------------------------------------| 


Verse: 

e|-------------------------------1--1---3--1------------------------------------| 
B|-----------------------1111----3----3-------3----1-11-1-11-1-11-1-11-1-11-1---| 
G|-11111111111--1111111--2222----2--------------2--0-00-0-00-0-00-0-00-0-00-0---| 
D|-22222222222--2222222--2222----------------------2-20-2-20-2-20-2-20-2-20-2---| 
A|-33333333333--2222222----------------------------3-30-3-30-3-30-3-30-3-30-3---| 
E|------------------------------------------------------------------------------|  
  

top 5 | scout niblett
top rock'n roll
Outras músicas do artista letras do(a) Scout Niblett
Top cifras »Top artistas »
Petaxxon Comunicação Online
Cifras.com.br - Melhor e mais completo site de cifras e tablaturas do Brasil
Mais de 1 milhão de acordes de músicas cadastradas desde 2003
As informações contidas no nosso site são colaborações de seus usuários e podem conter erros, sendo assim, não nos responsabilizamos sobre nenhuma destas.
close
menos
mais
close
Cor dos acordes:

Cor da letra:

 

save
close
close
 
redimensionar