Cifras e Tablaturas
Sebastian Hardie

Sebastian Hardie

Openings

Cifras Cancelar Versão de Impressão
cifras

Sebastian Hardie - Openings

fixar na tela  
Exibindo: vídeo-aula ver clipes redimensionar

Tom:

  

0:00-0:23 
e|---10---8---7---5----3-----------------------------------------| 
B|----10---10---8--6----5--3-------------------------------------| 
G|-----10---10---9--7----5---------------------------------------|    x7 
D|---------------------------------------------------------------| 
A|---------------------------------------------------------------| 
E|---------------------------------------------------------------| 

0:23-0:31 
e|---------------------------------------------------------------| 
B|---------------------------------------------------------------| 
G|---------------------------------------------------------------| 
D|----------12br-----12~~---------12br------12~~---------10------| 
A|--\12-15-------15--------\12-15-------15--------10--12----10---| 
E|---------------------------------------------------------------| 

0:35-0:48 
e|---------------------------------------------------------------| 
B|---------------------------------------------------------------| 
G|---------12br-----12~~----------12br-----12~~--------10-9br----| 
D|--\12-15-------15------\12--15--------15------10--12-----------| 
A|---------------------------------------------------------------| 
E|---------------------------------------------------------------| 

0:50-1:05 
e|----------------------------------------------------------------5wm*--3-| *whammy slow dive,3 is very faint 
B|------------------------------------------------------------------------| 
G|------------------------------------------------------------------------| 
D|---------12br-----12~~----------12br-----12~~----------10---------------| 
A|--\12-15-------15--------\12-15-------15-------10--12------10-----------| 
E|------------------------------------------------------------------------| 

1:06-1:19 
e|-----------------------------------------------------13-12---------------------------------| 
B|-------------------------------------------------13fb-------11\10--------------------------| 
G|---------12br-----12~~----------12br-----12~~---------------------12-10\9\5----7-----------| 
D|--\12-15-------15------\12--15--------15------12---------------------------------7\5/7-----| 
A|-------------------------------------------------------------------------------------------| 
E|-------------------------------------------------------------------------------------------| 

1:20-1:33 
e|----------------------------------------------------------------------------| 
B|---------15br------15~~--------15br------15~~--------13---------------------| 
G|--\14-17---------17------14-17---------17-------12-14----12--10\9--7--5\4---| 
D|--------------------------------------------------------------------------5-| 
A|----------------------------------------------------------------------------| 
E|----------------------------------------------------------------------------| 

1:34-1:48 
e|----------------------------------------------------------------------------| 
B|--------------------------------------13h-rb*-13hbr-------------------------| *Half bend release and series 
G|-------12br-----12~~---------12-br---------------------14~-14brbr~~---------| of quarter bend releases,each 
D|-12-15--------15------\12-15--------15--------------------------------------| higher than the last. 
A|----------------------------------------------------------------------------| 
E|----------------------------------------------------------------------------| 

1:49-2:10 
e|--------------------------------------------------------------------------| 
B|--8fbr-8~~--8br--6~~----8fbr~~--8--8br--6~~--8*-8br~~--8--8br--6~~--------| 
G|--------------------------------------------------------------------7-9---| 
D|--------------------------------------------------------------------------| 
A|--------------------------------------------------------------------------| 
E|--------------------------------------------------------------------------| 

2:11-2:22 
e|---------------------------------------------------------------| 
B|---------------------------------------------------------------| 
G|-10~~-12\10-9---5------5/7--\5---10br-9--5---5\7---------------| 
D|--------------------7----------------------7-------------------| 
A|---------------------------------------------------------------| 
E|---------------------------------------------------------------| 

3:57-4:16 
e|------------------------------------------------------------------------------------------| 
B|------------------------------------------------------------------------------------------| 
G|--12br~~-12-12br-10---12br~~--12--12br--10~~-9h10p9h10p9h10p9~~--12br~~-12--12br---10~~---| 
D|------------------------------------------------------------------------------------------| 
A|------------------------------------------------------------------------------------------| 
E|------------------------------------------------------------------------------------------| 

4:17-4:30 
e|--------------------------------------------------------------------------| 
B|--------------------------------------------------------------------------| 
G|--------------------------------------------------------------------------| 
D|---12-14*-15~~--17\15-14~~---------10/12-12/14---15-17\15-14~~-----10/12--| *Echo effect 
A|---------------------------15-12-----------------------------15-12--------| 
E|--------------------------------------------------------------------------| 

4:30- 
   {let ring out} not so great at chords, so both iffy, but defo an open e of some sort. 
e|-------10----------0---0----| *Super light touches. 
B|---10--10----------1--1-1*--| 
G|-10----7\5---------2--------| 
D|-------------------0--------| 
A|----------------------------| 
E|----------------------------| 

Will tab out the full thing when I have time. 

************************************ 

| br  Bend release 
| ~   Vibrato 
| \   Slide down 
| /   Slide up 
| h   Hammer-on 
| p   Pull-off 
  
************************************ 
  

top 5 | sebastian hardie
top rock'n roll
Outras músicas do artista letras do(a) Sebastian Hardie
Top cifras »Top artistas »
Petaxxon Comunicação Online
Cifras.com.br - Melhor e mais completo site de cifras e tablaturas do Brasil
Mais de 1 milhão de acordes de músicas cadastradas desde 2003
As informações contidas no nosso site são colaborações de seus usuários e podem conter erros, sendo assim, não nos responsabilizamos sobre nenhuma destas.
close
menos
mais
close
Cor dos acordes:

Cor da letra:

 

save
close
close
 
redimensionar