Cifras e Tablaturas
Seether

Seether

Let Me Heal

Cifras Cancelar Versão de Impressão
cifras

Seether - Let Me Heal

fixar na tela  
Exibindo: vídeo-aula ver clipes redimensionar

Tom:

  
Intro 
   Guitar 1 
e|----------------|----------------|----------------|----------------| 
B|----------------|----------------|----------------|----------------| 
G|----------------|----------------|----------------|----------------| 
D|-----7--6--4--6-|----------------|-----7--6--4--6-|----------------| 
A|----------------|-5~~~~~~~~~~~---|----------------|-5~~~~~-2~~~~~--| 
D|-4--------------|----------------|-4--------------|----------------| 
 |                |                |                |                | 
 | Guitar 2       |                |                |                | 
e|----------------|----------------|----------------|----------------| 
B|----------------|----------------|----------------|----------------| 
G|-11--11--11--11-|-11--11--11--9--|-11--11--11--11-|-11--11--11--9--| 
D|----------------|----------------|----------------|----------------|  
A|-9---9---9---9--|-9---9---9---7--|-9---9---9---9--|-9---9---9---7--| 
D|----------------|----------------|----------------|----------------| 

  Guitar 1 
e|----------------| 
B|----------------| 
G|----------------| 
D|----------------| 
A|-4~~~~~~~~~~~~--| 
D|----------------| 

Verse 
e|----------------|----------------| 
B|----------------|----------------| 
G|-11--11--11--11-|-11--11--11--9--| 
D|----------------|----------------|  x4 
A|-9---9---9---9--|-9---9---9---7--| 
D|----------------|----------------| 

Chorus 
e|----------------|--------4-------| 
B|--------5-------|--------5-------| 
G|------7----7----|------6----6----| 
D|----7--------7--|----6--------6--| x3 
A|--5-------------|--4-------------| 
D|----------------|----------------| 

e|----------------|-----------------| 
B|--------5-------|-----------------| 
G|------7----7----|-----6-------4---| 
D|----7--------7--|---6---6---4---4-|  
A|--5-------------|-4-------2-------| 
D|----------------|-----------------| 

Post-Chorus 
   Guitar 1 
e|----------------|----------------|----------------|----------------| 
B|----------------|----------------|----------------|----------------| 
G|----------------|----------------|----------------|----------------| 
D|-----7--6--4--6-|----------------|-----7--6--4--6-|----------------| 
A|----------------|-5~~~~~~~~~~~---|----------------|-5~~~~~-2~~~~~--| 
D|-4--------------|----------------|-4--------------|----------------| 
 |                |                |                |                | 
 | Guitar 2       |                |                |                | 
e|----------------|----------------|----------------|----------------| 
B|----------------|----------------|----------------|----------------| 
G|-11--11--11--11-|-11--11--11--9--|-11--11--11--11-|-11--11--11--9--| 
D|----------------|----------------|----------------|----------------|  
A|-9---9---9---9--|-9---9---9---7--|-9---9---9---9--|-9---9---9---7--| 
D|----------------|----------------|----------------|----------------| 

  Guitar 1 
e|----------------| 
B|----------------| 
G|----------------| 
D|----------------| 
A|-4~~~~~~~~~~~~--| 
D|----------------| 

verse 2 
e|----------------|----------------| 
B|----------------|----------------| 
G|-11--11--11--11-|-11--11--11--9--| 
D|----------------|----------------|  x4 
A|-9---9---9---9--|-9---9---9---7--| 
D|----------------|----------------| 

Chorus 2 
e|----------------|--------4-------| 
B|--------5-------|--------5-------| 
G|------7----7----|------6----6----| 
D|----7--------7--|----6--------6--| x3 
A|--5-------------|--4-------------| 
D|----------------|----------------| 

e|----------------|-----------------| 
B|--------5-------|-----------------| 
G|------7----7----|-----6-------4---| 
D|----7--------7--|---6---6---4---4-|  
A|--5-------------|-4-------2-------| 
D|----------------|-----------------| 

Bridge 
   Guitar 1 
e|---------------------------|-------------------------------| 
B|---------------------------|-------------------------------| 
G|---------------------------|-------------------------------| 
D|---------------------------|-------------------------------| x2 
A|---------------------------|-------------------------------|  
D|-/11--11--11--7--6--4--4--4|-4/12--12--12--11--9----9--7---| 

   Guitar 1 
e|---------------------------|-------------------------------| 
B|---------------------------|-------------------------------| 
G|---------------------------|-------------------------------| 
D|---------------------------|-------------------------------| 
A|---------------------------|-------------------------------|  
D|-/11--11--11--7--6--4--4--4|-4/12--12--12--11--9----9--7---| 
 |                           |                               | 
 | Guitar 2                  |                               | 
e|---------------------------|-------------------------------| 
B|---------------------------|-------------------------------| 
G|---------------------------|--------------------------9----| 
D|-11------------------------|-9---------------7-------------| 
A|---------------------------|-------------------------------| 
D|---------------------------|-------------------------------| 

   Guitar 1 
e|---------------------------|-------------------------------| 
B|---------------------------|-------------------------------| 
G|---------------------------|-------------------------------| 
D|---------------------------|-------------------------------| 
A|---------------------------|-------------------------------|  
D|-/11--11--11--7--6--4--4--4|-4/12--12--12--11--9----9--7---| 
 |                           |                               | 
 | Guitar 2                  |                               | 
e|---------------------------|-------------------------------| 
B|---------------------------|-------------------------------| 
G|---------------------------|-------------------------------| 
D|-11------------------------|-9---------------7--------4----| 
A|---------------------------|-------------------------------| 
D|---------------------------|-------------------------------| 

   Distorted Guitar 1 
e|---------------------------|-------------------------------| 
B|---------------------------|-------------------------------| 
G|---------------------------|-------------------------------| 
D|---------------------------|-------------------------------|  
A|---------------------------|-------------------------------|  
D|-/11--11--11--7--6--4--4--4|-4/12--12--12--11--9----9--7---| 
 |                           |                               | x4 
 | Distorted Guitar 2       /                                | 
e|-------------------------|---------------------------------| 
B|-------------------------|---------------------------------| 
G|-------------------------|---------------------14-14-14-14-| 
D|-------------------------|---------------------------------|  
A|--4------4------4------4-|-----4------4------4-12-12-12-12-| 
D|--4--x-x-4--x-x-4--x-x-4-|-x-x-4--x-x-4--x-x-4-------------| 

Final Chorus 
   Distorted Guitar 1 
e|----------------|--------4-------| 
B|--------5-------|--------5-------| 
G|------7----7----|------6----6----| 
D|----7--------7--|----6--------6--|  
A|--5-------------|--4-------------| 
D|----------------|----------------| 
 |                |                | x3 
 | Distorted Guitar 2              |  
e|----------------|----------------| 
B|----------------|----------------| 
G|-7--------------|-6--------------| 
D|-7--------------|-6--------------|  
A|-5--------------|-4--------------| 
D|----------------|----------------| 
    
   Distorted Guitar 1 
e|----------------|-----------------| 
B|--------5-------|-----------------| 
G|------7----7----|-----6-------4---| 
D|----7--------7--|---6---6---4---4-|  
A|--5-------------|-4-------2-------| 
D|----------------|-----------------| 
 |                |                 | 
 | Distorted Guitar 2               | 
e|----------------|-----------------| 
B|----------------|-----------------| 
G|-7--------------|-6-------4-------| 
D|-7--------------|-6-------4-------|  
A|-5--------------|-4-------2-------| 
D|----------------|-----------------| 

Outro 
e|----------------|-----------------| 
B|----------------|-----------------| 
G|----------------|-----------------| 
D|----------------|-----------------| x4 
A|-4---4---4---4--|-4---4---4---2---| 
D|-4---4---4---4--|-4---4---4---2---| 
  PH  PH  PH  PH 


************************************ 

| x   Dead note 
| /   Slide up 
| ~   Vibrato 
| PH  Pinch Harmonics 

************************************ 
  

top 5 | seether
top heavy metal
Outras músicas do artista letras do(a) Seether
Top cifras »Top artistas »
Petaxxon Comunicação Online
Cifras.com.br - Melhor e mais completo site de cifras e tablaturas do Brasil
Mais de 1 milhão de acordes de músicas cadastradas desde 2003
As informações contidas no nosso site são colaborações de seus usuários e podem conter erros, sendo assim, não nos responsabilizamos sobre nenhuma destas.
close
menos
mais
close
Cor dos acordes:

Cor da letra:

 

save
close
close
 
redimensionar