Cifras e Tablaturas
Seether

Seether

Nothing Left

Cifras Cancelar Versão de Impressão
cifras

Seether - Nothing Left

fixar na tela  
Exibindo: vídeo-aula ver clipes redimensionar
  
verse 1 x4  (0:00-0:38) 
Both Guitars: 
e|---------------------------------|            |-------------------------------| 
B|---------------------------------|            |-------------------------------| 
G|---------------------------------|            |-------------------------------| 
D|---------------------------------|  x3  then  |-------------------------------| 
A|---------------------------------|            |-------------------------------| 
D|--0-2-2-2-2-0-0-0-0-3-3-3-3-3-3--|            |--0-2-2-2-2-10-10-10-10-6-6-6--| 

Chorus 1  (0:39-0:57)  
Both Guitars: 
e|---------------------------|            |------------------------------| 
B|---------------------------|            |------------------------------| 
G|---------------------------|            |--------------5-5-5-5-5-5-5-5-| 
D|--0h2-2-2p0-0-0h3-3-3p0-0--|  x3  then  |--0h2-2-2p0-0-5-5-5-5-5-5-5-5-| 
A|--0h2-2-2p0-0-0h3-3-3p0-0--|            |--0h2-2-2p0-0-3-3-3-3-3-3-3-3-| 
D|--0h2-2-2p0-0-0h3-3-3p0-0--|            |--0h2-2-2p0-0-----------------| 

e|---------------------------|            |---------------------------| 
B|---------------------------|            |---------------------------| 
G|---------------------------|            |---------------------------| 
D|--0h2-2-2p0-0-0h3-3-3p0-0--|  x2  then  |--2-0-2-3-2-0-2-0-2-3-5-3--| 
A|--0h2-2-2p0-0-0h3-3-3p0-0--|            |--2-0-2-3-2-0-2-0-2-3-5-3--| 
D|--0h2-2-2p0-0-0h3-3-3p0-0--|            |--2-0-2-3-2-0-2-0-2-3-5-3--| 

Instrumental (0:58-1:07) 
Both Guitars: 
e|---------------------------------|            |-------------------------------| 
B|---------------------------------|            |-------------------------------| 
G|---------------------------------|            |-------------------------------| 
D|---------------------------------|  x3  then  |-------------------------------| 
A|---------------------------------|            |-------------------------------| 
D|--0-2-2-2-2-0-0-0-0-3-3-3-3-3-3--|            |--0-2-2-2-2-10-10-10-10-6-6-6--| 

Verse2 x4  (1:08-1:45) 
Both Guitars: 
e|---------------------------------|            |-------------------------------| 
B|---------------------------------|            |-------------------------------| 
G|---------------------------------|            |-------------------------------| 
D|---------------------------------|  x3  then  |-------------------------------| 
A|---------------------------------|            |-------------------------------| 
D|--0-2-2-2-2-0-0-0-0-3-3-3-3-3-3--|            |--0-2-2-2-2-10-10-10-10-6-6-6--| 

Chorus 2  (1:46-2:04) 
Both Guitars: 
e|---------------------------|            |------------------------------| 
B|---------------------------|            |------------------------------| 
G|---------------------------|            |--------------5-5-5-5-5-5-5-5-| 
D|--0h2-2-2p0-0-0h3-3-3p0-0--|  x3  then  |--0h2-2-2p0-0-5-5-5-5-5-5-5-5-| 
A|--0h2-2-2p0-0-0h3-3-3p0-0--|            |--0h2-2-2p0-0-3-3-3-3-3-3-3-3-| 
D|--0h2-2-2p0-0-0h3-3-3p0-0--|            |--0h2-2-2p0-0-----------------| 

e|---------------------------|            |---------------------------| 
B|---------------------------|            |---------------------------| 
G|---------------------------|            |---------------------------| 
D|--0h2-2-2p0-0-0h3-3-3p0-0--|  x2  then  |--2-0-2-3-2-0-2-0-2-3-5-3--| 
A|--0h2-2-2p0-0-0h3-3-3p0-0--|            |--2-0-2-3-2-0-2-0-2-3-5-3--| 
D|--0h2-2-2p0-0-0h3-3-3p0-0--|            |--2-0-2-3-2-0-2-0-2-3-5-3--| 

Tag  (2:05-2:24) 
Both Guitars:  
e|--------0-----------5--| 
B|--------8-----------5--| 
G|--------9-----------7--| 
D|--------9-----------7--|  x2 
A|--7-7-7-7-----5-5-5-5--| 
D|-----------------------| 

Solo  (2:25-2:43) 
Guitar 1: 
e|--------0-----------5--| 
B|--------8-----------5--| 
G|--------9-----------7--| 
D|--------9-----------7--|  x4 
A|--7-7-7-7-----5-5-5-5--| 
D|-----------------------| 
Guitar 2: 
e|---------------------------------------------------------------|  
B|---------------------------------------------------------------|  
G|--12-12-11-12---12-12--12/14-14\12-11-11-9-7----\2-----0-------|  
D|---------------------------------------------------------------|  
A|---------------------------------------------------------------|  
D|---------------------------------------------------------------|  

e|------------------------------------------------------------------| 
B|------------------------------------------------------------------| 
G|--12-12-11-12-/14-12-12-11-9-9-11-9-7-9-7-7/11-9--\2------0---/4--| 
D|------------------------------------------------------------------| 
A|------------------------------------------------------------------| 
D|------------------------------------------------------------------| 

Pre-Chorus  (2:44-2:52) 
Both Guitars: 
e|---------------------------------|            |-------------------------------| 
B|---------------------------------|            |-------------------------------| 
G|---------------------------------|            |-------------------------------| 
D|---------------------------------|  x3  then  |-------------------------------| 
A|---------------------------------|            |-------------------------------| 
D|--0-2-2-2-2-0-0-0-0-3-3-3-3-3-3--|            |--0-2-2-2-2-10-10-10-10-6-6-6--| 

Chorus 3 x2  (2:53-3:12) 
Both Guitars: 
e|---------------------------|            |------------------------------| 
B|---------------------------|            |------------------------------| 
G|---------------------------|            |--------------5-5-5-5-5-5-5-5-| 
D|--0h2-2-2p0-0-0h3-3-3p0-0--|  x3  then  |--0h2-2-2p0-0-5-5-5-5-5-5-5-5-| 
A|--0h2-2-2p0-0-0h3-3-3p0-0--|            |--0h2-2-2p0-0-3-3-3-3-3-3-3-3-| 
D|--0h2-2-2p0-0-0h3-3-3p0-0--|            |--0h2-2-2p0-0-----------------| 

Outro  (3:13-3:32) 
Guitar 1:  
e|---------------------------|          |---------------------------| 
B|---------------------------|          |---------------------------| 
G|---------------------------|          |---------------------------| 
D|--2-0-2-3-2-0-2-0-2-3-5-3--|   then   |--2-0-2-3-2-0-2-0-2-5-7-5--| 
A|--2-0-2-3-2-0-2-0-2-3-5-3--|          |--2-0-2-3-2-0-2-0-2-5-7-5--| 
D|--2-0-2-3-2-0-2-0-2-3-5-3--|          |--2-0-2-3-2-0-2-0-2-5-7-5--| 

Guitar 2: 
e|---------------------------|          |--------------------------| 
B|---------------------------|          |-----------------------4--|   <== solo starts from this bar  
G|---------------------------|          |--------------------------|       and continues to the next 
D|--2-0-2-3-2-0-2-0-2-3-5-3--|   then   |--2-0-2-3-2-0-2-0-2-5-----| 
A|--2-0-2-3-2-0-2-0-2-3-5-3--|          |--2-0-2-3-2-0-2-0-2-5-----| 
D|--2-0-2-3-2-0-2-0-2-3-5-3--|          |--2-0-2-3-2-0-2-0-2-5-----| 

Guitar 1:  
e|---------------------------|          |----------------------------| 
B|---------------------------|          |----------------------------| 
G|---------------------------|          |----------------------------| 
D|--2-0-2-3-2-0-2-0-2-3-5-3--|   then   |--2-0-2-3-2-0-2-0-2-5-7-5\--| 
A|--2-0-2-3-2-0-2-0-2-3-5-3--|          |--2-0-2-3-2-0-2-0-2-5-7-5\--| 
D|--2-0-2-3-2-0-2-0-2-3-5-3--|          |--2-0-2-3-2-0-2-0-2-5-7-5\--| 

Guitar 2: 
e|-----------------------------| 
B|-----------------------------| 
G|--/11-12-14-12-11-9-7-9-7-4--| 
D|-----------------------------|  x2 
A|-----------------------------| 
D|-----------------------------| 


************************************ 

| h  Hammer-on 
| p  Pull-off 
| /  Slide up 
| \  Slide down 

************************************ 
  

top 5 | seether
top heavy metal
Outras músicas do artista letras do(a) Seether
Top cifras »Top artistas »
Petaxxon Comunicação Online
Cifras.com.br - Melhor e mais completo site de cifras e tablaturas do Brasil
Mais de 1 milhão de acordes de músicas cadastradas desde 2003
As informações contidas no nosso site são colaborações de seus usuários e podem conter erros, sendo assim, não nos responsabilizamos sobre nenhuma destas.
close
menos
mais
close
Cor dos acordes:

Cor da letra:

 

save
close
close
 
redimensionar